Oops, an error
Loading. Please wait.

The Office Theme ukulele

3,316 views 117 this week
no commentswrite comment
1 2 3 4 5
x 15
add to favorites
×
Save as Personal and add changes to this tab that will be seen only by you. Learn more ›
×
You can save this tab as Personal to edit and correct it or add notes. All changes will be seen only by you. Learn more »
launch autoscroll
font size
0
reset
transpose
0
reset
display chords
guitar tuner
edit
Autoscroll
slow
fast
+/-
esc
set tempo
stop
Author
Difficulty
About this tab version
This tabs out the piano and reed organ in the song in a simple, easy way. Was this info helpful? Yes No
Strumming
There is no strumming pattern for this song yet. and get +5 IQ
This has two parts. One for the piano, one for the reed organ.

[Piano]
A|---5---5---5---5---5---5---7---7---7---7-7-7---------|
E|---7---7---7---7---7---7---7---7---7---8-8-8-7-5-7---| 
C|-----7-------7---6-------6---7-------7---------------|(x5)
G|-----------------------------------------------------|
Once by itself, then play the reed organ part with it.

[Reed Organ]
A|------10---9-10-9-5-7--3-3-3-2-0-2----|
E|--------------------------------------|
C|---7----------------------------------|
G|--------------------------------------|

A|--------10---9-10-12-9-7--5-7-5-2-3-3-3-2-0-2-------|
E|----------------------------------------------(3)---|
C|-----7----------------------------------------------| x2 (entire part)
G|----------------------------------------------------|
Only play the notes in brackets on the last repeat.

            
            
Suggest correction
Creating personal tab
Creating personal tab
You can edit any tab online and save it as your Personal.

You can edit, replace or remove any tab part or add personal notes – all changes will be seen only by you.

Personal tabs can be accessed anytime from any device, even offline.
Learn more »
comments
print report bad tab
guest
You may want to rate the tab now too:
select rating
Wanna post a correction for this tab? Suggest correction