Oops, an error
Loading. Please wait.

The Pacific Theme Chords

8,326 views 6 this week
2 commentsread comments
1 2 3 4 5
excellent!
x 6
add to favorites
launch autoscroll
font size
0
reset
transpose
0
reset
display chords
guitar tuner
Tab Pro tools
  • play this tab
  • loop segment
  • change instrument
  • show fretboard
  • metronome
×
Best way to learn
"The Pacific Theme"
Autoscroll
slow
fast
+/-
esc
set tempo
stop
Contributor
Capo
1st fret
HANS ZIMMER: HONOR
MAIN TITLE THEME FROM 'THE PACIFIC'
From The Album: The Pacific (Soundtrack)

CAPO on 1st fret, standard tuning

C                C                                                  
----------0-----|----------0-----|                                  
------1-3---3---|------1-3---3---|                                  
----------------|----------------|                                  
----------------|----------------|                                  
3---------------|3---------------|                                  
----------------|----------------|                                  
                                                                    
 C   G/B          Am               F                G               
----------------|-0--------------|-1-0-3-0--------|----------------|
-1---3----------|----------------|----------------|-3--------------|
-0--------------|----------------|----------------|----------------|
-2--------------|----------------|----------------|----------------|
-3---2----------|-0--------------|----------------|----------------|
----------------|----------------|-1--------------|-3--------------|
                                                                    
 Am               F               C                C                
----------------|----------------|----------0-----|----------0-----|
-1-0------------|----------------|------1-3---3---|------1-3---3---|
-----0----------|-2--------------|----------------|----------------|
----------------|----------------|----------------|----------------|
-0--------------|----------------|3---------------|3---------------|
----------------|-1--------------|----------------|----------------|
                                                                    
 C   G/B          Am               F                G               
----------------|-0--------------|-1-0-3-0--------|----------------|
-1---3----------|----------------|----------------|-3--------------|
-------0--------|----------------|----------------|----------------|
----------------|----------------|----------------|----------------|
-3---2----------|-0--------------|----------------|----------------|
----------------|----------------|-1--------------|-3--------------|
                                                                    
 Am               F                C               C                
-8-7------------|-5--------------|----------0-----|----------0-----|
-----8----------|----------------|------1-3---3---|------1-3---3---|
----------------|----------------|----------------|----------------|
-7--------------|----------------|----------------|----------------|
----------------|-8--------------|-3--------------|3---------------|
----------------|----------------|----------------|----------------|
                                                                    
C                 Am                                                
----------0-----|----------------|                                  
------1-3---3-0-|-1---1-0--------|                                  
----------------|---0------------|                                  
----------------|----------------|                                  
3---------------|-0--------------|                                  
----------------|----------------|                                  

 F               Am                F               Am               
----------------|----0-----------|----------------|----0-----------|
-----1-0--------|1-3---3-0-------|-----1-0--------|1-3---3-0-------|
-2-0------------|----------------|-2-0------------|----------------|
----------------|----------------|----------------|----------------|
----------------|0---------------|----------------|0---------------|
-1------------- |----------------|-1--------------|----------------|
                                                                    
 F               Am               F                                 
----------------|----0-3---------|----------------|                 
-----1-0--------|1-3-------------|---1-3----------|                 
-2-0------------|----------------|-2-----0--------|                 
----------------|----------------|----------------|                 
----------------|0---------------|----------------|                 
-1--------------|----------------|-1--------------|                 
                                                                    
 C   G/B          Am               F                G               
----------------|-0--------------|-1-0-3-0--------|----------------|
-1---3----------|----------------|----------------|-3--------------|
-------0--------|----------------|----------------|----------------|
----------------|----------------|----------------|----------------|
-3---2----------|-0--------------|----------------|----------------|
----------------|----------------|-1--------------|-3--------------|
                                                                    
 Am               F                Am               G               
-8-7------------|-5--------------|---0-3----------|----------------|
-----8----------|----------------|-1-----1--------|-3--------------|
----------------|----------------|----------------|----------------|
-7--------------|----------------|----------------|----------------|
----------------|-8--------------|-0--------------|----------------|
----------------|----------------|----------------|-3--------------|
                                                                    
 C                C                C                                
-----------0----|----------0-----|----------0-----|                 
-1-----1-3---3--|------1-3---3---|-----1-3---3-1--|                 
----------------|----------------|----------------|                 
----------------|----------------|----------------|                 
-3--------------|-3--------------|-3--------------|                 
----------------|----------------|----------------|
comments
print report bad tab
2 comments total.
+2 reply
RaziBoy wrote on June 19 2010, 02:54 am

You are brilliant.

0 reply
seanster168 wrote on May 20 2016, 08:31 am

Thank you so much!!! My grandpa was in Dog Company on Guadalcanal and Peleliu and I've always wanted to be able to play this for him. A million thanks!

I want to post or [tab]
guest
You may want to rate the tab now too:
select rating
Please do not post tabs as comments. Select "correction" instead!