Oops, an error
Loading. Please wait.

The Walking Dead Theme Tab

version 1
version 1

Whole song

Interactive

101,617 views 417 this week
5 commentsread comments
1 2 3 4 5
excellent!
x 46
add to favorites
launch autoscroll
font size
0
reset
how to read this tab
guitar tuner
Autoscroll
slow
fast
+/-
esc
set tempo
stop
Help us to improve Ultimate-Guitar.com Take our survey!
×
Author
Difficulty
intermediate
Title: The Walking Dead (Main Theme)
Artist: Bear McCreary
Album: The Walking Dead OST
Music: Bear McCreary



E|----------------------------------------------------|  
B|--------10-11-10----------10-11-10----------10-11---|
G|----------------------------------------------------|
D|-----12----------12----12----------12----12---------| x7
A|--10----------------10----------------10------------|
E|----------------------------------------------------|


e|----------------------------------------------------|  
B|--------6--7--6-----------6--7--6-----------6--7----|
G|----------------------------------------------------|
D|-----8-----------8-----8-----------8-----8----------| x2
A|--6-----------------6-----------------6-------------| 
E|----------------------------------------------------|


e|----------------------------------------------------|  
B|--------3--4--3-----------3--4--3-----------3--4----|
G|----------------------------------------------------|
D|-----5-----------5-----5-----------5-----5----------| x2
A|--3-----------------3-----------------3-------------|
E|----------------------------------------------------|


e|----------------------------------------------------|  
B|--------10-11-10----------10-11-10----------10-11---|
G|----------------------------------------------------|
D|-----12----------12----12----------12----12---------| x4
A|--10----------------10----------------10------------|
E|----------------------------------------------------|


e|----------------------------------------------------|----||
B|--------10-11-10----------10-11-10------------------|----||
G|----------------------------------------------------|----||
D|-----12----------12----12----------12----12---------|----||
A|--10----------------10----------------10----10------|----||
E|----------------------------------------------------|----||


Enjoy!
Suggest correction
comments
print report bad tab
5 comments total. Showing first comments.
0 reply
Ninja_Fish 10 wrote on July 3 2013, 11:00 pm

I don't recognize it from the show but its still a really nice and easy to learn riff to chill out to.

0 reply
deathmask1984 10 wrote on October 19 2013, 12:02 pm

there's minors in the music that im not really hearing.

0 reply
dakerater 10 wrote on March 19 2014, 06:32 pm

I really want to learn the solo for this song. Can you do a tab on that?

guest
You may want to rate the tab now too:
select rating
Wanna post a correction for this tab? Suggest correction