Oops, an error
Loading. Please wait.

Three Amigos Theme Tab

2,787 views 1 this week
2 commentsread comments
1 2 3 4 5
x 4
add to favorites
launch autoscroll
font size
0
reset
how to read this tab
guitar tuner
×
Best way to learn
"Three Amigos Theme"
Autoscroll
slow
fast
+/-
esc
set tempo
stop
          hillarios riff from the movie "Three Amigos"
          not sure who actually did it, got it off the movie.
          
          Repeat as many times as you want to?
          e|-------------------------------------------------------------------|
          b|-------------------------------------------------------------------|
          g|-------------------------------------------------------------------|
          d|-------------------------------------2-4-2---2-4-2---2-4-2-432432--|
          a|---2-4-2---2-4-2---2-4-2--432432---0-------0-------0---------------|
          e|-0-------0-------0-------------------------------------------------|
Suggest correction
comments
print report bad tab
2 comments total.
0 reply
hobo8917 30 Jul 16, 2004 08:00 PM

this sounds fairly correct, i wish i knew the name of the song Chevy Chase played though

0 reply
itrytofixtabs 20 Oct 23, 2006 07:35 AM

This sounds better


Repeat as many times as you want to?
e|------------------------------------
b|------------------------------------
g|------------------------------------
d|------------------------------------
a|---2-4-2---2-4-2---2-4-2--5-2-4-2---
e|-0-------0-------0------------------


e|------------------------------------
b|------------------------------------
g|------------------------------------
d|----2-4-2---2-4-2---2-4-2--5-2-4-2--
a|--0-------0-------0-----------------
e|------------------------------------

guest
You may want to rate the tab now too:
select rating
Wanna post a correction for this tab? Suggest correction