Oops, an error
Loading. Please wait.

Trent Reznor Atticus Ross - Complication With Optimistic Outcome Tab

13 views 1 this week
no commentswrite comment
1 2 3 4 5
3 more votes to show rating
add to favorites
launch autoscroll
font size
0
reset
how to read this tab
guitar tuner
Autoscroll
slow
fast
+/-
esc
set tempo
stop
Help us to improve Ultimate-Guitar.com Take our survey!
×
Author
Difficulty
intermediate
About this tab version
Guitar and Synth parts included. Was this info helpful? Yes No
Trent Reznor & Atticus Ross
"Complication With Optimistic Outcome"


[Intro]
  Guitar fades in
e|--------------------------------|--------------------------------|
B|--------------------------------|--------------------------------|
G|7~------------------------------|----------------------5~--------|
D|--------------------------------|--------------------------------|
A|--------------------------------|--------------------------------|
E|--------------------------------|--------------------------------|


e|--------------------------------|--------------------------------|
B|--------------------------------|--------------------------------|
G|7~------------------------------|----------------------5~--------|
D|--------------------------------|--------------------------------|
A|--------------------------------|--------------------------------|
E|--------------------------------|--------------------------------|


e|--------------------------------|--------------------------------|
B|--------------------------------|--------------------------------|
G|7~------------------------------|----------------------5~--------|
D|--------------------------------|--------------------------------|
A|--------------------------------|--------------------------------|
E|--------------------------------|--------------------------------|
 |Synth fades in
e|--------------------------------|------------------------------5-|
B|------8-------8-------8-------8-|------8-------8-------8---------|
G|--4-5-----4-5-----4-5-----4-5---|--4-5-----4-5-----4-5-----4-5---|
D|--------------------------------|--------------------------------|
A|5-------5-------5-------5-------|5-------5-------5-------5-------|
E|--------------------------------|--------------------------------|
 |Bass Synth fades in
G|--------------------------------|--------------------------------|
D|----5-------5-------5-------5---|----5-------5-------5-------5---|
A|--------------------------------|--------------------------------|
E|3-------3-------3-------3-------|3-------3-------3-------3-------|


e|--------------------------------|--------------------------------|
B|--------------------------------|--------------------------------|
G|7~-----------------------------/|9~-------------------------8~---|
D|--------------------------------|--------------------------------|
A|--------------------------------|--------------------------------|
E|--------------------------------|--------------------------------|
 |
e|--------------------------------|------------------------------5-|
B|------8-------8-------8-------8-|------8-------8-------8---------|
G|--4-5-----4-5-----4-5-----4-5---|--4-5-----4-5-----4-5-----4-5---|
D|--------------------------------|--------------------------------|
A|5-------5-------5-------5-------|5-------5-------5-------5-------|
E|--------------------------------|--------------------------------|
 |
G|--------------------------------|--------------------------------|
D|----3-------3-------3-------3---|----3-------3-------3-------3---|
A|--------------------------------|--------------------------------|
E|1-------1-------1-------1-------|1-------1-------1-------1-------|


e|--------------------------------|--------------------------------|
B|--------------------------------|--------------------------------|
G|7~------------------------------|----------------------5~--------|
D|--------------------------------|--------------------------------|
A|--------------------------------|--------------------------------|
E|--------------------------------|--------------------------------|
 |
e|--------------------------------|--------------------------------|
B|------3-------3-------3-------3-|------3-------3-------3-------3-|
G|----2-------2-------2-------2---|----2-------2-------2-------2---|
D|--3-------3-------3-------3-----|--3-------3-------3-------3-----|
A|5-------5-------5-------5-------|5-------5-------5-------5-------|
E|--------------------------------|--------------------------------|
 |
G|----7-------7-------7-------7---|----7-------7-------7-------7---|
D|--------------------------------|--------------------------------|
A|5-------5-------5-------5-------|5-------5-------5-------5-------|
E|--------------------------------|--------------------------------|


e|--------------------------------|--------------------------------|
B|--------------------------------|--------------------------------|
G|7~------------------------------|----------------------5~--------|
D|--------------------------------|--------------------------------|
A|--------------------------------|--------------------------------|
E|--------------------------------|--------------------------------|
 |
e|--------------------------------|--------------------------------|
B|------3-------3-------3-------3-|------3-------3-------3-------3-|
G|----2-------2-------2-------2---|----2-------2-------2-------2---|
D|--3-------3-------3-------3-----|--3-------3-------3-------3-----|
A|5-------5-------5-------5-------|5-------5-------5-------5-------|
E|--------------------------------|--------------------------------|
 |
G|----5-------5-------5-------5---|----5-------5-------5-------5---|
D|--------------------------------|--------------------------------|
A|3-------3-------3-------3-------|3-------3-------3-------3-------|
E|--------------------------------|--------------------------------|


e|--------------------------------|--------------------------------|
B|--------------------------------|--------------------------------|
G|7~------------------------------|----------------------5~--------|
D|--------------------------------|--------------------------------|
A|--------------------------------|--------------------------------|
E|--------------------------------|--------------------------------|
 |
e|--------------------------------|--------------------------------|
B|------------6-8-------------6-8-|------------6-8-------------6-8-|
G|--------5-7-------------5-7-----|--------5-7-------------5-7-----|
D|----3-5-------------3-5---------|----3-5-------------3-5---------|
A|3-5-------------3-5-------------|3-5-------------3-5-------------|
E|--------------------------------|--------------------------------|
 |
G|--------------------------------|--------------------------------|
D|----5-------5-------5-------5---|----5-------5-------5-------5---|
A|--------------------------------|--------------------------------|
E|3-------3-------3-------3-------|3-------3-------3-------3-------|
                                                    Guitar fades out
e|--------------------------------|--------------------------------|
B|--------------------------------|--------------------------------|
G|7~-----------------------------/|9~-------------------------8~---|
D|--------------------------------|--------------------------------|
A|--------------------------------|--------------------------------|
E|--------------------------------|--------------------------------|
 |
e|--------------------------------|--------------------------------|
B|------------6-8-------------6-8-|------------6-8-------------6-8-|
G|--------5-7-------------5-7-----|--------5-7-------------5-7-----|
D|----3-5-------------3-5---------|----3-5-------------3-5---------|
A|3-5-------------3-5-------------|3-5-------------3-5-------------|
E|--------------------------------|--------------------------------|
 |
G|--------------------------------|--------------------------------|
D|----3-------3-------3-------3---|----3-------3-------3-------3---|
A|--------------------------------|--------------------------------|
E|1-------1-------1-------1-------|1-------1-------1-------1-------|


[A Section] 0:32
  Piano enters
e|--------------------------------|--------------------------------|
B|----0-------0-------0-------0---|----0-------0-------1-------0---|
G|--------------------------------|--------------------------------|
D|--------------------------------|--------------------------------|
A|--------------------------------|--------------------------------|
E|--------------------------------|--------------------------------|
 |
e|--------------------------------|--------------------------------|
B|------6-------6-------6-------6-|------6-------6-------6-------6-|
G|----4-------4-------4-------4---|----4-------4-------4-------4---|
D|--7-------7-------7-------7-----|--7-------7-------7-------7-----|
A|5-------5-------5-------5-------|5-------5-------5-------5-------|
E|--------------------------------|--------------------------------|
 |
G|----7-------7-------7-------7---|----7-------7-------7-------7---|
D|--------------------------------|--------------------------------|
A|5-------5-------5-------5-------|5-------5-------5-------5-------|
E|--------------------------------|--------------------------------|


e|--------------------------------|--------------------------------|
B|----0-------0-------0-------0---|----0-------0-------1-------3---|
G|--------------------------------|--------------------------------|
D|--------------------------------|--------------------------------|
A|--------------------------------|--------------------------------|
E|--------------------------------|--------------------------------|
 |
e|--------------------------------|--------------------------------|
B|------6-------6-------6-------6-|------6-------6-------6-------6-|
G|----4-------4-------4-------4---|----4-------4-------4-------4---|
D|--7-------7-------7-------7-----|--7-------7-------7-------7-----|
A|5-------5-------5-------5-------|5-------5-------5-------5-------|
E|--------------------------------|--------------------------------|
 |
G|----5-------5-------5-------5---|----5-------5-------5-------5---|
D|--------------------------------|--------------------------------|
A|3-------3-------3-------3-------|3-------3-------3-------3-------|
E|--------------------------------|--------------------------------|


e|--------------------------------|--------------------------------|
B|----0-------0-------0-------0---|----0-------0-------1-------0---|
G|--------------------------------|--------------------------------|
D|--------------------------------|--------------------------------|
A|--------------------------------|--------------------------------|
E|--------------------------------|--------------------------------|
 |
e|--------------------------------|------------------------------5-|
B|------8-------8-------8-------8-|------8-------8-------8---------|
G|--4-5-----4-5-----4-5-----4-5---|--4-5-----4-5-----4-5-----4-5---|
D|--------------------------------|--------------------------------|
A|5-------5-------5-------5-------|5-------5-------5-------5-------|
E|--------------------------------|--------------------------------|
 |
G|--------------------------------|--------------------------------|
D|----5-------5-------5-------5---|----5-------5-------5-------5---|
A|--------------------------------|--------------------------------|
E|3-------3-------3-------3-------|3-------3-------3-------3-------|

                                                       Guitar enters
e|--------------------------------|--------------------------------|
B|--------------------------------|-----------------------/8~------|
G|--------------------------------|--------------------------------|
D|--------------------------------|--------------------------------|
A|--------------------------------|--------------------------------|
E|--------------------------------|--------------------------------|
 |
e|--------------------------------|------------0-------------------|
B|----0-------0-------0-------0---|----1---------------------------|
G|--------------------------------|--------------------2-----------|
D|--------------------------------|--------------------------------|
A|--------------------------------|--------------------------------|
E|--------------------------------|--------------------------------|
 |
e|--------------------------------|------------------------------5-|
B|------8-------8-------8-------8-|------8-------8-------8---------|
G|--4-5-----4-5-----4-5-----4-5---|--4-5-----4-5-----4-5-----4-5---|
D|--------------------------------|--------------------------------|
A|5-------5-------5-------5-------|5-------5-------5-------5-------|
E|--------------------------------|--------------------------------|
 |
G|--------------------------------|--------------------------------|
D|----3-------3-------3-------3---|----3-------3-------3-------3---|
A|--------------------------------|--------------------------------|
E|1-------1-------1-------1-------|1-------1-------1-------1-------|


e|--------------------------------|--------------------------------|
B|6~------------------------------|------------------------5~------|
G|--------------------------------|--------------------------------|
D|--------------------------------|--------------------------------|
A|--------------------------------|--------------------------------|
E|--------------------------------|--------------------------------|
 |
e|--------------------------------|--------------------------------|
B|----0-------0-------0-------0---|----0-------0-------1-------0---|
G|--------------------------------|--------------------------------|
D|--------------------------------|--------------------------------|
A|--------------------------------|--------------------------------|
E|--------------------------------|--------------------------------|
 |
e|--------------------------------|--------------------------------|
B|------3-------3-------3-------3-|------3-------3-------3-------3-|
G|----2-------2-------2-------2---|----2-------2-------2-------2---|
D|--3-------3-------3-------3-----|--3-------3-------3-------3-----|
A|5-------5-------5-------5-------|5-------5-------5-------5-------|
E|--------------------------------|--------------------------------|
 |
G|----7-------7-------7-------7---|----5-------5-------5-------5---|
D|--------------------------------|--------------------------------|
A|5-------5-------5-------5-------|3-------3-------3-------3-------|
E|--------------------------------|--------------------------------|


e|--------------------------------|--------------------------------|
B|3~------------------------------|-----------------------/8~------|
G|--------------------------------|--------------------------------|
D|--------------------------------|--------------------------------|
A|--------------------------------|--------------------------------|
E|--------------------------------|--------------------------------|
 |
e|--------------------------------|--------------------------------|
B|----0-------0-------0-------0---|----0-------0-------1-------3---|
G|--------------------------------|--------------------------------|
D|--------------------------------|--------------------------------|
A|--------------------------------|--------------------------------|
E|--------------------------------|--------------------------------|
 |
e|--------------------------------|--------------------------------|
B|------3-------3-------3-------3-|------3-------3-------3-------3-|
G|----2-------2-------2-------2---|----2-------2-------2-------2---|
D|--3-------3-------3-------3-----|--3-------3-------3-------3-----|
A|5-------5-------5-------5-------|5-------5-------5-------5-------|
E|--------------------------------|--------------------------------|
 |
G|----7-------7-------7-------7---|----5-------5-------5-------5---|
D|--------------------------------|--------------------------------|
A|5-------5-------5-------5-------|3-------3-------3-------3-------|
E|--------------------------------|--------------------------------|


e|--------------------------------|--------------------------------|
B|6~------------------------------|------------------------5~------|
G|--------------------------------|--------------------------------|
D|--------------------------------|--------------------------------|
A|--------------------------------|--------------------------------|
E|--------------------------------|--------------------------------|
 |
e|--------------------------------|--------------------------------|
B|----0-------0-------0-------0---|----0-------0-------1-------0---|
G|--------------------------------|--------------------------------|
D|--------------------------------|--------------------------------|
A|--------------------------------|--------------------------------|
E|--------------------------------|--------------------------------|
 |
e|--------------------------------|--------------------------------|
B|------------6-8-------------6-8-|------------6-8-------------6-8-|
G|--------5-7-------------5-7-----|--------5-7-------------5-7-----|
D|----3-5-------------3-5---------|----3-5-------------3-5---------|
A|3-5-------------3-5-------------|3-5-------------3-5-------------|
E|--------------------------------|--------------------------------|
 |
G|--------------------------------|--------------------------------|
D|----5-------5-------5-------5---|----3-------3-------3-------3---|
A|--------------------------------|--------------------------------|
E|3-------3-------3-------3-------|1-------1-------1-------1-------|


e|--------------------------------|--------------------------------|
B|3~------------------------------|-----------------------/8~------|
G|--------------------------------|--------------------------------|
D|--------------------------------|--------------------------------|
A|--------------------------------|--------------------------------|
E|--------------------------------|--------------------------------|
 |
e|--------------------------------|------------0-------------------|
B|----0-------0-------0-------0---|----1---------------------------|
G|--------------------------------|--------------------2-----------|
D|--------------------------------|--------------------------------|
A|--------------------------------|--------------------------------|
E|--------------------------------|--------------------------------|
 |
e|--------------------------------|--------------------------------|
B|------------6-8-------------6-8-|------------6-8-------------6-8-|
G|--------5-7-------------5-7-----|--------5-7-------------5-7-----|
D|----3-5-------------3-5---------|----3-5-------------3-5---------|
A|3-5-------------3-5-------------|3-5-------------3-5-------------|
E|--------------------------------|--------------------------------|
 |
G|--------------------------------|--------------------------------|
D|----5-------5-------5-------5---|----3-------3-------3-------3---|
A|--------------------------------|--------------------------------|
E|3-------3-------3-------3-------|1-------1-------1-------1-------|


e|--------------------------------|--------------------------------|
B|6~------------------------------|------------------------5~------|
G|--------------------------------|--------------------------------|
D|--------------------------------|--------------------------------|
A|--------------------------------|--------------------------------|
E|--------------------------------|--------------------------------|
 |
e|--------------------------------|--------------------------------|
B|----0-------0-------0-------0---|----0-------0-------1-------0---|
G|--------------------------------|--------------------------------|
D|--------------------------------|--------------------------------|
A|--------------------------------|--------------------------------|
E|--------------------------------|--------------------------------|
 |
e|--------------------------------|--------------------------------|
B|------6-------6-------6-------6-|------6-------6-------6-------6-|
G|----4-------4-------4-------4---|----4-------4-------4-------4---|
D|--7-------7-------7-------7-----|--7-------7-------7-------7-----|
A|5-------5-------5-------5-------|5-------5-------5-------5-------|
E|--------------------------------|--------------------------------|
 |
G|----7-------7-------7-------7---|----7-------7-------7-------7---|
D|--------------------------------|--------------------------------|
A|5-------5-------5-------5-------|5-------5-------5-------5-------|
E|--------------------------------|--------------------------------|


e|--------------------------------|--------------------------------|
B|3~------------------------------|-----------------------/8~------|
G|--------------------------------|--------------------------------|
D|--------------------------------|--------------------------------|
A|--------------------------------|--------------------------------|
E|--------------------------------|--------------------------------|
 |
e|--------------------------------|--------------------------------|
B|----0-------0-------0-------0---|----0-------0-------1-------3---|
G|--------------------------------|--------------------------------|
D|--------------------------------|--------------------------------|
A|--------------------------------|--------------------------------|
E|--------------------------------|--------------------------------|
 |
e|--------------------------------|--------------------------------|
B|------6-------6-------6-------6-|------6-------6-------6-------6-|
G|----4-------4-------4-------4---|----4-------4-------4-------4---|
D|--7-------7-------7-------7-----|--7-------7-------7-------7-----|
A|5-------5-------5-------5-------|5-------5-------5-------5-------|
E|--------------------------------|--------------------------------|
 |
G|----5-------5-------5-------5---|----5-------5-------5-------5---|
D|--------------------------------|--------------------------------|
A|3-------3-------3-------3-------|3-------3-------3-------3-------|
E|--------------------------------|--------------------------------|


e|--------------------------------|--------------------------------|
B|6~------------------------------|------------------------5~------|
G|--------------------------------|--------------------------------|
D|--------------------------------|--------------------------------|
A|--------------------------------|--------------------------------|
E|--------------------------------|--------------------------------|
 |
e|--------------------------------|--------------------------------|
B|----0-------0-------0-------0---|----0-------0-------1-------0---|
G|--------------------------------|--------------------------------|
D|--------------------------------|--------------------------------|
A|--------------------------------|--------------------------------|
E|--------------------------------|--------------------------------|
 |
e|--------------------------------|------------------------------5-|
B|------8-------8-------8-------8-|------8-------8-------8---------|
G|--4-5-----4-5-----4-5-----4-5---|--4-5-----4-5-----4-5-----4-5---|
D|--------------------------------|--------------------------------|
A|5-------5-------5-------5-------|5-------5-------5-------5-------|
E|--------------------------------|--------------------------------|
 |
G|--------------------------------|--------------------------------|
D|----5-------5-------5-------5---|----5-------5-------5-------5---|
A|--------------------------------|--------------------------------|
E|3-------3-------3-------3-------|3-------3-------3-------3-------|


e|--------------------------------|--------------------------------|
B|3~------------------------------|-----------------------/8~------|
G|--------------------------------|--------------------------------|
D|--------------------------------|--------------------------------|
A|--------------------------------|--------------------------------|
E|--------------------------------|--------------------------------|
 |
e|--------------------------------|------------0-------------------|
B|----0-------0-------0-------0---|----1---------------------------|
G|--------------------------------|--------------------2-----------|
D|--------------------------------|--------------------------------|
A|--------------------------------|--------------------------------|
E|--------------------------------|--------------------------------|
 |
e|--------------------------------|------------------------------5-|
B|------8-------8-------8-------8-|------8-------8-------8---------|
G|--4-5-----4-5-----4-5-----4-5---|--4-5-----4-5-----4-5-----4-5---|
D|--------------------------------|--------------------------------|
A|5-------5-------5-------5-------|5-------5-------5-------5-------|
E|--------------------------------|--------------------------------|
 |
G|--------------------------------|--------------------------------|
D|----3-------3-------3-------3---|----3-------3-------3-------3---|
A|--------------------------------|--------------------------------|
E|1-------1-------1-------1-------|1-------1-------1-------1-------|


e|--------------------------------|--------------------------------|
B|6~------------------------------|------------------------5~------|
G|--------------------------------|--------------------------------|
D|--------------------------------|--------------------------------|
A|--------------------------------|--------------------------------|
E|--------------------------------|--------------------------------|
 |
e|--------------------------------|--------------------------------|
B|----0-------0-------0-------0---|----0-------0-------1-------0---|
G|--------------------------------|--------------------------------|
D|--------------------------------|--------------------------------|
A|--------------------------------|--------------------------------|
E|--------------------------------|--------------------------------|
 |
e|--------------------------------|--------------------------------|
B|------3-------3-------3-------3-|------3-------3-------3-------3-|
G|----2-------2-------2-------2---|----2-------2-------2-------2---|
D|--3-------3-------3-------3-----|--3-------3-------3-------3-----|
A|5-------5-------5-------5-------|5-------5-------5-------5-------|
E|--------------------------------|--------------------------------|
 |
G|----7-------7-------7-------7---|----5-------5-------5-------5---|
D|--------------------------------|--------------------------------|
A|5-------5-------5-------5-------|3-------3-------3-------3-------|
E|--------------------------------|--------------------------------|


e|--------------------------------|--------------------------------|
B|3~------------------------------|-----------------------/8~------|
G|--------------------------------|--------------------------------|
D|--------------------------------|--------------------------------|
A|--------------------------------|--------------------------------|
E|--------------------------------|--------------------------------|
 |
e|--------------------------------|--------------------------------|
B|----0-------0-------0-------0---|----0-------0-------1-------3---|
G|--------------------------------|--------------------------------|
D|--------------------------------|--------------------------------|
A|--------------------------------|--------------------------------|
E|--------------------------------|--------------------------------|
 |
e|--------------------------------|--------------------------------|
B|------3-------3-------3-------3-|------3-------3-------3-------3-|
G|----2-------2-------2-------2---|----2-------2-------2-------2---|
D|--3-------3-------3-------3-----|--3-------3-------3-------3-----|
A|5-------5-------5-------5-------|5-------5-------5-------5-------|
E|--------------------------------|--------------------------------|
 |
G|----7-------7-------7-------7---|----5-------5-------5-------5---|
D|--------------------------------|--------------------------------|
A|5-------5-------5-------5-------|3-------3-------3-------3-------|
E|--------------------------------|--------------------------------|


e|--------------------------------|--------------------------------|
B|6~------------------------------|------------------------5~------|
G|--------------------------------|--------------------------------|
D|--------------------------------|--------------------------------|
A|--------------------------------|--------------------------------|
E|--------------------------------|--------------------------------|
 |
e|--------------------------------|--------------------------------|
B|----0-------0-------0-------0---|----0-------0-------1-------0---|
G|--------------------------------|--------------------------------|
D|--------------------------------|--------------------------------|
A|--------------------------------|--------------------------------|
E|--------------------------------|--------------------------------|
 |
e|--------------------------------|--------------------------------|
B|------------6-8-------------6-8-|------------6-8-------------6-8-|
G|--------5-7-------------5-7-----|--------5-7-------------5-7-----|
D|----3-5-------------3-5---------|----3-5-------------3-5---------|
A|3-5-------------3-5-------------|3-5-------------3-5-------------|
E|--------------------------------|--------------------------------|
 |
G|--------------------------------|--------------------------------|
D|----5-------5-------5-------5---|----3-------3-------3-------3---|
A|--------------------------------|--------------------------------|
E|3-------3-------3-------3-------|1-------1-------1-------1-------|


e|--------------------------------|--------------------------------|
B|3~------------------------------|-----------------------/8~------|
G|--------------------------------|--------------------------------|
D|--------------------------------|--------------------------------|
A|--------------------------------|--------------------------------|
E|--------------------------------|--------------------------------|
 |
e|--------------------------------|------------0-------------------|
B|----0-------0-------0-------0---|----1---------------------------|
G|--------------------------------|--------------------2-----------|
D|--------------------------------|--------------------------------|
A|--------------------------------|--------------------------------|
E|--------------------------------|--------------------------------|
 |
e|--------------------------------|--------------------------------|
B|------------6-8-------------6-8-|------------6-8-------------6-8-|
G|--------5-7-------------5-7-----|--------5-7-------------5-7-----|
D|----3-5-------------3-5---------|----3-5-------------3-5---------|
A|3-5-------------3-5-------------|3-5-------------3-5-------------|
E|--------------------------------|--------------------------------|
 |
G|--------------------------------|--------------------------------|
D|----5-------5-------5-------5---|----3-------3-------3-------3---|
A|--------------------------------|--------------------------------|
E|3-------3-------3-------3-------|1-------1-------1-------1-------|


[B Section] 1:36
  
e|--------------------------------|--------------------------------|
B|--------------------------------|--------------------------------|
G|----2-5-----2-5-----2-5-----2-5-|----2-5-----2-5-----2-5-----2-5-|
D|3-5-----3-5-----3-5-----3-5-----|3-5-----3-5-----3-5-----3-5-----|
A|--------------------------------|--------------------------------|
E|--------------------------------|--------------------------------|
 |
G|--------------------------------|--------------------------------|
D|----3-------3-------3-------3---|----3-------3-------3-------3---|
A|--------------------------------|--------------------------------|
E|1-------1-------1-------1-------|1-------1-------1-------1-------|


e|--------------------------------|--------------------------------|
B|--------------------------------|--------------------------------|
G|--------------------------------|--------------------------------|
D|----5-8-----5-8-----5-8-----5-8-|----5-8-----5-8-----5-8-----5-8-|
A|6-8-----6-8-----6-8-----6-8-----|6-8-----6-8-----6-8-----6-8-----|
E|--------------------------------|--------------------------------|
 |
G|----5-------5-------5-------5---|----5-------5-------5-------5---|
D|--------------------------------|--------------------------------|
A|3-------3-------3-------3-------|3-------3-------3-------3-------|
E|--------------------------------|--------------------------------|


e|--------------------------------|--------------------------------|
B|--------------------------------|--------------------------------|
G|--------------------------------|----------------10~------------\|
D|--------------------------------|--------------------------------|
A|--------------------------------|--------------------------------|
E|--------------------------------|--------------------------------|
 |
e|--------------------------------|--------------------------------|
B|------4-------4-------4-------4-|------4-------4-------4-------4-|
G|----3-------3-------3-------3---|----3-------3-------3-------3---|
D|--5-------5-------5-------5-----|--5-------5-------5-------5-----|
A|6-------6-------6-------6-------|6-------6-------6-------6-------|
E|--------------------------------|--------------------------------|
 |
G|----8-------8-------8-------8---|----8-------8-------8-------8---|
D|--------------------------------|--------------------------------|
A|6-------6-------6-------6-------|6-------6-------6-------6-------|
E|--------------------------------|--------------------------------|


e|--------------------------------|--------------------------------|
B|--------------------------------|--------------------------------|
G|8~-----------------------------\|7~-----------------------------\|
D|--------------------------------|--------------------------------|
A|--------------------------------|--------------------------------|
E|--------------------------------|--------------------------------|
 |
e|--------------------------------|--------------------------------|
B|------3-------3-------3-------3-|------3-------3-------3-------3-|
G|----3-------3-------3-------3---|----3-------3-------3-------3---|
D|--3-------3-------3-------3-----|--3-------3-------3-------3-----|
A|5-------5-------5-------5-------|5-------5-------5-------5-------|
E|--------------------------------|--------------------------------|
 |
G|--------------------------------|--------------------------------|
D|----8-------8-------8-------8---|----8-------8-------8-------8---|
A|--------------------------------|--------------------------------|
E|6-------6-------6-------6-------|6-------6-------6-------6-------|


e|--------------------------------|--------------------------------|
B|--------------------------------|--------------------------------|
G|5~------------------------------|---------------/10~------------\|
D|--------------------------------|--------------------------------|
A|--------------------------------|--------------------------------|
E|--------------------------------|--------------------------------|
 |
e|--------------------------------|--------------------------------|
B|--------------------------------|--------------------------------|
G|----2-5-----2-5-----2-5-----2-5-|----2-5-----2-5-----2-5-----2-5-|
D|3-5-----3-5-----3-5-----3-5-----|3-5-----3-5-----3-5-----3-5-----|
A|--------------------------------|--------------------------------|
E|--------------------------------|--------------------------------|
 |
G|--------------------------------|--------------------------------|
D|----3-------3-------3-------3---|----3-------3-------3-------3---|
A|--------------------------------|--------------------------------|
E|1-------1-------1-------1-------|1-------1-------1-------1-------|


e|--------------------------------|--------------------------------|
B|--------------------------------|--------------------------------|
G|8~-----------------------------\|7~--------------------------5~-\|
D|--------------------------------|--------------------------------|
A|--------------------------------|--------------------------------|
E|--------------------------------|--------------------------------|
 |
e|--------------------------------|--------------------------------|
B|--------------------------------|--------------------------------|
G|--------------------------------|--------------------------------|
D|----5-8-----5-8-----5-8-----5-8-|----5-8-----5-8-----5-8-----5-8-|
A|6-8-----6-8-----6-8-----6-8-----|6-8-----6-8-----6-8-----6-8-----|
E|--------------------------------|--------------------------------|
 |
G|----5-------5-------5-------5---|----5-------5-------5-------5---|
D|--------------------------------|--------------------------------|
A|3-------3-------3-------3-------|3-------3-------3-------3-------|
E|--------------------------------|--------------------------------|


e|--------------------------------|--------------------------------|
B|--------------------------------|--------------------------------|
G|0~------------------------------|---------------/10~-------------|
D|--------------------------------|--------------------------------|
A|--------------------------------|--------------------------------|
E|--------------------------------|--------------------------------|
 |
e|--------------------------------|--------------------------------|
B|------4-------4-------4-------4-|------4-------4-------4-------4-|
G|----3-------3-------3-------3---|----3-------3-------3-------3---|
D|--5-------5-------5-------5-----|--5-------5-------5-------5-----|
A|6-------6-------6-------6-------|6-------6-------6-------6-------|
E|--------------------------------|--------------------------------|
 |
G|----8-------8-------8-------8---|----8-------8-------8-------8---|
D|--------------------------------|--------------------------------|
A|6-------6-------6-------6-------|6-------6-------6-------6-------|
E|--------------------------------|--------------------------------|


e|--------------------------------|--------------------------------|
B|--------------------------------|--------------------------------|
G|8~-----------------------------\|7~-----------------------------\|
D|--------------------------------|--------------------------------|
A|--------------------------------|--------------------------------|
E|--------------------------------|--------------------------------|
 |
e|--------------------------------|--------------------------------|
B|------3-------3-------3-------3-|------3-------3-------3-------3-|
G|----3-------3-------3-------3---|----3-------3-------3-------3---|
D|--3-------3-------3-------3-----|--3-------3-------3-------3-----|
A|5-------5-------5-------5-------|5-------5-------5-------5-------|
E|--------------------------------|--------------------------------|
 |
G|--------------------------------|--------------------------------|
D|----8-------8-------8-------8---|----8-------8-------8-------8---|
A|--------------------------------|--------------------------------|
E|6-------6-------6-------6-------|6-------6-------6-------6-------|


e|--------------------------------|--------------------------------|
B|--------------------------------|--------------------------------|
G|5~------------------------------|---------------/10~------------\|
D|--------------------------------|--------------------------------|
A|--------------------------------|--------------------------------|
E|--------------------------------|--------------------------------|
 |
e|--------------------------------|--------------------------------|
B|--------------------------------|--------------------------------|
G|----2-5-----2-5-----2-5-----2-5-|----2-5-----2-5-----2-5-----2-5-|
D|3-5-----3-5-----3-5-----3-5-----|3-5-----3-5-----3-5-----3-5-----|
A|--------------------------------|--------------------------------|
E|--------------------------------|--------------------------------|
 |
G|--------------------------------|--------------------------------|
D|----3-------3-------3-------3---|----3-------3-------3-------3---|
A|--------------------------------|--------------------------------|
E|1-------1-------1-------1-------|1-------1-------1-------1-------|


e|--------------------------------|--------------------------------|
B|--------------------------------|--------------------------------|
G|8~-----------------------------\|7~--------------------------5~-\|
D|--------------------------------|--------------------------------|
A|--------------------------------|--------------------------------|
E|--------------------------------|--------------------------------|
 |
e|--------------------------------|--------------------------------|
B|--------------------------------|--------------------------------|
G|--------------------------------|--------------------------------|
D|----5-8-----5-8-----5-8-----5-8-|----5-8-----5-8-----5-8-----5-8-|
A|6-8-----6-8-----6-8-----6-8-----|6-8-----6-8-----6-8-----6-8-----|
E|--------------------------------|--------------------------------|
 |
G|----5-------5-------5-------5---|----5-------5-------5-------5---|
D|--------------------------------|--------------------------------|
A|3-------3-------3-------3-------|3-------3-------3-------3-------|
E|--------------------------------|--------------------------------|


e|--------------------------------|--------------------------------|
B|--------------------------------|--------------------------------|
G|0~------------------------------|----------------10~------------\|
D|--------------------------------|--------------------------------|
A|--------------------------------|--------------------------------|
E|--------------------------------|--------------------------------|
 |
e|--------------------------------|--------------------------------|
B|------4-------4-------4-------4-|------4-------4-------4-------4-|
G|----3-------3-------3-------3---|----3-------3-------3-------3---|
D|--5-------5-------5-------5-----|--5-------5-------5-------5-----|
A|6-------6-------6-------6-------|6-------6-------6-------6-------|
E|--------------------------------|--------------------------------|
 |
G|----8-------8-------8-------8---|----8-------8-------8-------8---|
D|--------------------------------|--------------------------------|
A|6-------6-------6-------6-------|6-------6-------6-------6-------|
E|--------------------------------|--------------------------------|


e|--------------------------------|--------------------------------|
B|--------------------------------|--------------------------------|
G|8~-----------------------------\|7~-----------------------------\|
D|--------------------------------|--------------------------------|
A|--------------------------------|--------------------------------|
E|--------------------------------|--------------------------------|
 |
e|--------------------------------|--------------------------------|
B|------3-------3-------3-------3-|------3-------3-------3-------3-|
G|----3-------3-------3-------3---|----3-------3-------3-------3---|
D|--3-------3-------3-------3-----|--3-------3-------3-------3-----|
A|5-------5-------5-------5-------|5-------5-------5-------5-------|
E|--------------------------------|--------------------------------|
 |
G|--------------------------------|--------------------------------|
D|----8-------8-------8-------8---|----8-------8-------8-------8---|
A|--------------------------------|--------------------------------|
E|6-------6-------6-------6-------|6-------6-------6-------6-------|


e|--------------------------------|--------------------------------|
B|--------------------------------|--------------------------------|
G|5~------------------------------|---------------/10~------------\|
D|--------------------------------|--------------------------------|
A|--------------------------------|--------------------------------|
E|--------------------------------|--------------------------------|
 |
e|--------------------------------|--------------------------------|
B|--------------------------------|--------------------------------|
G|----2-5-----2-5-----2-5-----2-5-|----2-5-----2-5-----2-5-----2-5-|
D|3-5-----3-5-----3-5-----3-5-----|3-5-----3-5-----3-5-----3-5-----|
A|--------------------------------|--------------------------------|
E|--------------------------------|--------------------------------|
 |
G|--------------------------------|--------------------------------|
D|----3-------3-------3-------3---|----3-------3-------3-------3---|
A|--------------------------------|--------------------------------|
E|1-------1-------1-------1-------|1-------1-------1-------1-------|


e|--------------------------------|--------------------------------|
B|--------------------------------|--------------------------------|
G|8~-----------------------------\|7~--------------------------5~-\|
D|--------------------------------|--------------------------------|
A|--------------------------------|--------------------------------|
E|--------------------------------|--------------------------------|
 |
e|--------------------------------|--------------------------------|
B|--------------------------------|--------------------------------|
G|--------------------------------|--------------------------------|
D|----5-8-----5-8-----5-8-----5-8-|----5-8-----5-8-----5-8-----5-8-|
A|6-8-----6-8-----6-8-----6-8-----|6-8-----6-8-----6-8-----6-8-----|
E|--------------------------------|--------------------------------|
 |
G|----5-------5-------5-------5---|----5-------5-------5-------5---|
D|--------------------------------|--------------------------------|
A|3-------3-------3-------3-------|3-------3-------3-------3-------|
E|--------------------------------|--------------------------------|


e|--------------------------------|--------------------------------|
B|--------------------------------|--------------------------------|
G|0~------------------------------|---------------/10~-------------|
D|--------------------------------|--------------------------------|
A|--------------------------------|--------------------------------|
E|--------------------------------|--------------------------------|
 |
e|--------------------------------|--------------------------------|
B|------4-------4-------4-------4-|------4-------4-------4-------4-|
G|----3-------3-------3-------3---|----3-------3-------3-------3---|
D|--5-------5-------5-------5-----|--5-------5-------5-------5-----|
A|6-------6-------6-------6-------|6-------6-------6-------6-------|
E|--------------------------------|--------------------------------|
 |
G|----8-------8-------8-------8---|----8-------8-------8-------8---|
D|--------------------------------|--------------------------------|
A|6-------6-------6-------6-------|6-------6-------6-------6-------|
E|--------------------------------|--------------------------------|


e|--------------------------------|--------------------------------|
B|--------------------------------|--------------------------------|
G|8~-----------------------------\|7~-----------------------------\|
D|--------------------------------|--------------------------------|
A|--------------------------------|--------------------------------|
E|--------------------------------|--------------------------------|
 |
e|--------------------------------|--------------------------------|
B|------3-------3-------3-------3-|------3-------3-------3-------3-|
G|----3-------3-------3-------3---|----3-------3-------3-------3---|
D|--3-------3-------3-------3-----|--3-------3-------3-------3-----|
A|5-------5-------5-------5-------|5-------5-------5-------5-------|
E|--------------------------------|--------------------------------|
 |
G|--------------------------------|--------------------------------|
D|----8-------8-------8-------8---|----8-------8-------8-------8---|
A|--------------------------------|--------------------------------|
E|6-------6-------6-------6-------|6-------6-------6-------6-------|


e|--------------------------------|--------------------------------|
B|--------------------------------|--------------------------------|
G|5~------------------------------|---------------/10~------------\|
D|--------------------------------|--------------------------------|
A|--------------------------------|--------------------------------|
E|--------------------------------|--------------------------------|
 |
e|--------------------------------|--------------------------------|
B|--------------------------------|--------------------------------|
G|----2-5-----2-5-----2-5-----2-5-|----2-5-----2-5-----2-5-----2-5-|
D|3-5-----3-5-----3-5-----3-5-----|3-5-----3-5-----3-5-----3-5-----|
A|--------------------------------|--------------------------------|
E|--------------------------------|--------------------------------|
 |
G|--------------------------------|--------------------------------|
D|----3-------3-------3-------3---|----3-------3-------3-------3---|
A|--------------------------------|--------------------------------|
E|1-------1-------1-------1-------|1-------1-------1-------1-------|


e|--------------------------------|--------------------------------|
B|--------------------------------|--------------------------------|
G|8~-----------------------------\|7~--------------------------5~-\|
D|--------------------------------|--------------------------------|
A|--------------------------------|--------------------------------|
E|--------------------------------|--------------------------------|
 |
e|--------------------------------|--------------------------------|
B|--------------------------------|--------------------------------|
G|--------------------------------|--------------------------------|
D|----5-8-----5-8-----5-8-----5-8-|----5-8-----5-8-----5-8-----5-8-|
A|6-8-----6-8-----6-8-----6-8-----|6-8-----6-8-----6-8-----6-8-----|
E|--------------------------------|--------------------------------|
 |
G|----5-------5-------5-------5---|----5-------5-------5-------5---|
D|--------------------------------|--------------------------------|
A|3-------3-------3-------3-------|3-------3-------3-------3-------|
E|--------------------------------|--------------------------------|


e|--------------------------------|--------------------------------|
B|--------------------------------|--------------------------------|
G|0~------------------------------|----------------10~------------\|
D|--------------------------------|--------------------------------|
A|--------------------------------|--------------------------------|
E|--------------------------------|--------------------------------|
 |
e|--------------------------------|--------------------------------|
B|------4-------4-------4-------4-|------4-------4-------4-------4-|
G|----3-------3-------3-------3---|----3-------3-------3-------3---|
D|--5-------5-------5-------5-----|--5-------5-------5-------5-----|
A|6-------6-------6-------6-------|6-------6-------6-------6-------|
E|--------------------------------|--------------------------------|
 |
G|----8-------8-------8-------8---|----8-------8-------8-------8---|
D|--------------------------------|--------------------------------|
A|6-------6-------6-------6-------|6-------6-------6-------6-------|
E|--------------------------------|--------------------------------|

                                                           Fade Out
e|--------------------------------|--------------------------------|
B|--------------------------------|--------------------------------|
G|8~-----------------------------\|7~-----------------------------\|
D|--------------------------------|--------------------------------|
A|--------------------------------|--------------------------------|
E|--------------------------------|--------------------------------|
 |                                                         Fade Out
e|--------------------------------|--------------------------------|
B|------3-------3-------3-------3-|------3-------3-------3-------3-|
G|----3-------3-------3-------3---|----3-------3-------3-------3---|
D|--3-------3-------3-------3-----|--3-------3-------3-------3-----|
A|5-------5-------5-------5-------|5-------5-------5-------5-------|
E|--------------------------------|--------------------------------|
 |                                                         Fade Out
G|--------------------------------|--------------------------------|
D|----8-------8-------8-------8---|----8-------8-------8-------8---|
A|--------------------------------|--------------------------------|
E|6-------6-------6-------6-------|6-------6-------6-------6-------|



************************************

| /   Slide up
| \   Slide down
| ~   Vibrato

************************************
Suggest correction
Give kudos to tab author, rate the tab!
1 2 3 4 5
comments
print report bad tab
guest
You may want to rate the tab now too:
select rating
Wanna post a correction for this tab? Suggest correction