Oops, an error
Loading. Please wait.

Wallace And Gromit Theme Tab

version 2
version 2

Whole song

10,871 views 33 this week
6 commentsread comments
1 2 3 4 5
x 21
add to favorites
launch autoscroll
font size
0
reset
how to read this tab
guitar tuner
×
Best way to learn
"Wallace And Gromit Theme"
Autoscroll
slow
fast
+/-
esc
set tempo
stop
e--------------------------------------------------------
B--------------------------------------------------------
G-5-3-2--5-3-2---5-0-----7-5-7-9-7-5-2-------------------
D--------------------------------------------------------
A--------------------------------------------------------
E--------------------------------------------------------


e--------------------------------------------------------
B--------------------------------------------------------
G-5-3-2--5-3-2---5-0------7-5-7-9-7-9-10--10-------------
D---------------------------------------10---------------
A--------------------------------------------------------
E--------------------------------------------------------

Well, that's it. Pretty simple.
Suggest correction
comments
print report bad tab
6 comments total. Showing first comments.
+2 reply
wood2168 10 Mar 19, 2006 04:50 AM

I dunno about you, but i thought there was another bit at the end???

0 reply
itrytofixtabs 20 Oct 23, 2006 07:41 AM

this sounds better to me

e--------------------------------------------------------
B--------------------------------------------------------
G-5-3-2--5-3-2---5-0-----7-5-7-9-7-5-3-2-3-5-------------
D--------------------------------------------------------
A--------------------------------------------------------
E--------------------------------------------------------


e--------------------------------------------------------
B-----------------------------------------/---2x---\-----
G-5-3-2--5-3-2--5-0--7-5-7-9-7-9-10--10--10-10-10-9-7----
D----------------------------------10--------------------
A--------------------------------------------------------
E--------------------------------------------------------

thats all i have

+1 reply
edgespear 113 Jul 01, 2007 04:32 AM

i would just add one note to the first stave:
e--------------------------------------------------------
B--------------------------------------------------------
G-5-3-2--5-3-2---5-0-----7-5-7-9-7-5-3-2-----------------
D--------------------------------------------------------
A--------------------------------------------------------
E--------------------------------------------------------
Good tab though, and yeah, theres another bit at the end isnt there?????

guest
You may want to rate the tab now too:
select rating
Wanna post a correction for this tab? Suggest correction