Oops, an error
Loading. Please wait.

When You Wish Upon A Star tab

version 1
version 1

Whole song

Interactive

26,543 views 78 this week
no commentswrite comment
1 2 3 4 5
x 3
add to favorites
×
Save as Personal and add changes to this tab that will be seen only by you. Learn more ›
×
You can save this tab as Personal to edit and correct it or add notes. All changes will be seen only by you. Learn more »
launch autoscroll
font size
0
reset
how to read this tab
guitar tuner
edit
Autoscroll
slow
fast
+/-
esc
set tempo
stop
Author
Tabbers playing skills
----------------------------------------------------------------------------
           When You Wish upon a Star - Ned Washington & Leigh Harline
----------------------------------------------------------------------------



Tabbed by: Dave S. 
Email: prime-prine@hotmail.com

Tuning: Standard


                          
(Intro)

E||--10----8----7----5----|--3----1----0---------|--5-------------------|
B||---8---------7---------|--5----3----1----3----|--6----6----0---------|
G||-----------------------|--2---------2---------|--5----5----2----1----|
D||-----------------------|----------------------|------------3---------|
A||-----------------------|----------------------|----------------------|
E||-----------------------|----------------------|----------------------|
 ||
E||---0----------2--------|--1-------------------|--1--------10----4----|
B||---1----------1--------|--3-------------------|--1--------10----3----|
G||---0----------2--------|--2-------------------|--2--------10----4----|
D||---2----------1--------|--0-------------------|--3---------9----3----|
A||---3-------------------|----------------------|-----------10---------|
E||-----------------------|----------------------|--3-------------------|  
     

                          (Verse)
||--------3--------------|-------3----1----0----|------------5--------|
||-------------5----3----|----------------------|--2----3-------------|
||---0---------2----4----|--0-------------------|---------------------|
||--10-------------------|----------------------|---------------------|
||--12-------------------|----------------------|---------------------|
||--12-------------------|----------------------|---------------------|
||
||--0----------5----1----|--0---------0---------|--1---------1--------|
||--1----------5----0----|--1---------2---------|--3---------1--------|
||--2----------4----0----|--0---------0---------|--2---------2--------|
||--2----------3----0----|--2---------2---------|--0---------0--------|
||--3--------------------|--3---------0---------|---------------------|
||------------------3----|----------------------|---------------------|                        
     


||-------7----5----3----|--2----3----8--------|--10----8----7----5----|
||--0-------------------|---------------------|-----------------------|
||----------------------|---------------------|-----------------------|
||----------------------|---------------------|-----------------------|
||----------------------|---------------------|-----------------------|
||----------------------|---------------------|-----------------------|
||
||--1-------------------|--2----0----0--------|--0----------2---------|
||--0-------------------|--1----1----1--------|--1----------1---------|
||--0-------------------|--2----0----2--------|--0----------2---------|
||--0-------------------|--1----2----2--------|--2----------1---------|
||----------------------|-------3-------------|--3--------------------|
||--3-------------------|------------3--------|-----------------------|



||--3----1----0---------|--5-----------------|--3-----------------|
||-----------------3----|-----------0--------|--------------------|
||----------------------|--------------------|--------------------|
||----------------------|--------------------|--------------------|
||----------------------|--------------------|--------------------|
||----------------------|--------------------|--------------------|
||
||--1---------0----1----|--1--------10----4--|--0--------5-----1--|
||--3---------1----1----|--1--------10----3--|--0--------5-----0--|
||--2---------2----2----|--2--------10----4--|--0--------4-----0--|
||--0---------2----3----|--3---------9----3--|--2--------3-----0--|
||------------0----3----|-----------10-------|--3-----------------|
||-----------------1----|--3-----------------|-----------------3--|



||-------3----1----0----|------------5--------|-------7----5----3----|
||----------------------|--2----3-------------|--0-------------------|
||--0-------------------|---------------------|----------------------|
||----------------------|---------------------|----------------------|
||----------------------|---------------------|----------------------|
||----------------------|---------------------|----------------------|
||
||--0---------0---------|--1---------1--------|--1-------------------|
||--1---------2---------|--3---------1--------|--0-------------------|
||--0---------0---------|--2---------2--------|--0-------------------|
||--2---------2---------|--0---------0--------|--0-------------------|
||--3---------0---------|---------------------|----------------------|
||----------------------|---------------------|--3-------------------|


      
||--2----3----8--------|--10----8----7----5----|--3----1----0---------|
||---------------------|-----------------------|-----------------3----|
||---------------------|-----------------------|----------------------|
||---------------------|-----------------------|----------------------|
||---------------------|-----------------------|----------------------|
||---------------------|-----------------------|----------------------|
||
||--2----0----0--------|--0----------2---------|--1---------0----1----|
||--1----1----1--------|--1----------1---------|--3---------1----1----|
||--2----0----2--------|--0----------2---------|--2---------2----2----|
||--1----2----2--------|--2----------1---------|--0---------2----3----|
||-------3-------------|--3--------------------|------------0----3----|
||------------3--------|-----------------------|-----------------1----|


                                           (Chorus)
||--5-----------------|-------------------|-----------0--------|
||-----------0--------|--1----------------|--3-----------------|
||--------------------|-------------------|--------------------|
||--------------------|-------------------|--------------------|
||--------------------|-------------------|--------------------|
||--------------------|-------------------|--------------------|
||
||--1--------10-------|--0----------------|-----------0--------|
||--1--------10-------|--1----------------|--3--------0--------|
||--2--------10-------|--0----------------|--1--------0--------|
||--3---------9-------|--2----------------|--3--------2--------|
||-----------10-------|--3----------------|-----------2--------|
||--3-----------------|-------------------|--3--------3--------|


        
||--3----------------|------------0----1----|--2----5----3--------|
||-------------------|-------3--------------|---------------------|
||-------------------|----------------------|---------------------|
||-------------------|----------------------|---------------------|
||-------------------|----------------------|---------------------|
||-------------------|----------------------|---------------------|
||
||--0--------0-------|-------1----3-----1---|--2---------0--------|
||--0--------1-------|-------3----2-----0---|--1---------1--------|
||--0--------2-------|-------2----3-----0---|--2---------0--------|
||--2--------2-------|-------0----------0---|--1---------2--------|
||--3--------3-------|----------------------|------------3--------|
||-------------------|-------3----------3---|---------------------|


              
||-------0----2----3----|--4--7--5-------5--7--8--|--8----------------|
||----------------------|-------------------------|-------------------|
||----------------------|-------------------------|-------------------|
||----------------------|-------------------------|-------------------|
||----------------------|-------------------------|-------------------|
||----------------------|-------------------------|-------------------|
||
||-------0--------------|--2----------------------|--1----------------|
||-------1--------------|--1----------------------|--3----------------|
||-------2--------------|--2----------------------|--1----------------|
||-------2--------------|--0----------------------|--3----------------|
||-------0--------------|-------------------------|-------------------|
||----------------------|-------------------------|-------------------|


                          (Verse)
||--7--------------------|-------3----1----0--|------------5--------|
||-----------------------|--------------------|--2----3-------------|
||-----------------------|--0-----------------|---------------------|
||-----------------------|--------------------|---------------------|
||-----------------------|--------------------|---------------------|
||-----------------------|--------------------|---------------------|
||
||--1--------4------1----|--0--------0--------|--1---------1--------|
||--0--------4------0----|--1--------2--------|--3---------1--------|
||--0--------4------0----|--0--------0--------|--2---------2--------|
||--0--------3------0----|--2--------2--------|--0---------0--------|
||-----------------------|--3--------0--------|---------------------|
||--3--------3------3----|--------------------|---------------------|



||-------7----5----3----|--2----3----8--------|--10----8----7----5----|
||--0-------------------|---------------------|-----------------------|
||----------------------|---------------------|-----------------------|
||----------------------|---------------------|-----------------------|
||----------------------|---------------------|-----------------------|
||----------------------|---------------------|-----------------------|
||
||--1-------------------|--2----0----0--------|--0----------2---------|
||--0-------------------|--1----1----1--------|--1----------1---------|
||--0-------------------|--2----0----2--------|--0----------2---------|
||--0-------------------|--1----2----2--------|--2----------1---------|
||----------------------|-------3-------------|--3--------------------|
||--3-------------------|------------3--------|-----------------------|



||--3----1----0---------|--5-----------------|--------------------|
||-----------------3----|-----------0--------|--1-----------------|
||----------------------|--------------------|--------------------|
||----------------------|--------------------|--------------------|
||----------------------|--------------------|--------------------|
||----------------------|--------------------|--------------------|
||
||--1---------0----1----|--1--------10----4--|--0--------5-----1--|
||--3---------1----1----|--1--------10----3--|--1--------5-----0--|
||--2---------2----2----|--2--------10----4--|--0--------4-----0--|
||--0---------2----3----|--3---------9----3--|--2--------3-----0--|
||------------0----3----|-----------10-------|--3-----------------|
||-----------------1----|--3-----------------|-----------------3--|



||-------3----1----0----|------------5--------|-------7----5----3----|
||----------------------|--2----3-------------|--0-------------------|
||--0-------------------|---------------------|----------------------|
||----------------------|---------------------|----------------------|
||----------------------|---------------------|----------------------|
||----------------------|---------------------|----------------------|
||
||--0---------0---------|--1---------1--------|--1-------------------|
||--1---------2---------|--3---------1--------|--0-------------------|
||--0---------0---------|--2---------2--------|--0-------------------|
||--2---------2---------|--0---------0--------|--0-------------------|
||--3---------0---------|---------------------|----------------------|
||----------------------|---------------------|--3-------------------|



||--2----3----8--------|--10----8----7----5----|--3----1----0---------|
||---------------------|-----------------------|-----------------3----|
||---------------------|-----------------------|----------------------|
||---------------------|-----------------------|----------------------|
||---------------------|-----------------------|----------------------|
||---------------------|-----------------------|----------------------|
||
||--2----0----0--------|--0----------2---------|--1---------0----1----|
||--1----1----1--------|--1----------1---------|--3---------1----1----|
||--2----0----2--------|--0----------2---------|--2---------2----2----|
||--1----2----2--------|--2----------1---------|--0---------2----3----|
||-------3-------------|--3--------------------|------------0----3----|
||------------3--------|-----------------------|-----------------1----|



||--5--------7--------|--8----------------||
||--------------------|-------------------||
||--------------------|-------------------||
||--------------------|-------------------||
||--------------------|-------------------||
||--------------------|-------------------||
||
||--1--------1--------|--0----------------||
||--1--------0--------|--1----------------||
||--2--------0--------|--0----------------||
||--3--------0--------|--2----------------||
||--------------------|--3----------------||
||--3--------3--------|-------------------||



| /  slide up
| \  slide down
| h  hammer-on
| p  pull-off
| ~  vibrato
| +  harmonic
| x  Mute note
===========================================================================
Suggest correction
Creating personal tab
Creating personal tab
You can edit any tab online and save it as your Personal.

You can edit, replace or remove any tab part or add personal notes – all changes will be seen only by you.

Personal tabs can be accessed anytime from any device, even offline.
Learn more »
Give kudos to tab author, rate the tab!
1 2 3 4 5
comments
print report bad tab
guest
You may want to rate the tab now too:
select rating
Wanna post a correction for this tab? Suggest correction