Oops, an error
Loading. Please wait.

Willy Wonka And The Chocolate Factory - Oompa Loompa Bass

2,647 views 3 this week
no commentswrite comment
1 2 3 4 5
2 more votes to show rating
add to favorites
×
Save as Personal and add changes to this tab that will be seen only by you. Learn more ›
×
You can save this tab as Personal to edit and correct it or add notes. All changes will be seen only by you. Learn more »
save as personal
new!
launch autoscroll
font size
0
reset
guitar tuner
Autoscroll
slow
fast
+/-
esc
set tempo
stop
Author
Difficulty
novice
G|--------------------------------------------|
D|-3-3-31-1--1--3-1------3-3-31-1-1--3-1-1----| A
A|--1-1--4----43---431-3--1-1--4---43---4-43-1|
E|--------------------------------------------|

G|-------------------0------------------------|
D|---------0-----1-13--31013-3-----0-0--------|
A|-1-131-13-31-0---------------1-01---310-----|
E|---------------------------------------3-1--| 

G|-------0--5--3---------|                   |--------02-3|
D|-2--01----------3413-1-| repeat A / ending |-3-3-3-3----|
A|---3----------------4-3|                   |--1-1-1-----|
E|-----------------------|                   |------------|       
Suggest correction
Give kudos to tab author, rate the tab!
1 2 3 4 5
comments
print report bad tab
guest
You may want to rate the tab now too:
select rating
Wanna post a correction for this tab? Suggest correction