Oops, an error
Loading. Please wait.

Willy Wonka And The Chocolate Factory - Pure Imagination tab

version 2
version 2

Whole song

  • First tab done by me. Based off of something seen on YouTube a while ago.
4,318 views 3 this week
3 commentsread comments
1 2 3 4 5
x 6
add to favorites
×
Save as Personal and add changes to this tab that will be seen only by you. Learn more ›
×
You can save this tab as Personal to edit and correct it or add notes. All changes will be seen only by you. Learn more »
launch autoscroll
font size
0
reset
how to read this tab
guitar tuner
edit
Autoscroll
slow
fast
+/-
esc
set tempo
stop
Author
Difficulty
intermediate
                -------------------------------------------------------------------------------
                             PURE IMAGINATION - Willy Wonka (Gene Wilder version)
                -------------------------------------------------------------------------------
Tabbed by:Ben Maley
E-mail:jdgforlife@gmail.com

Tuning:Standard
Hello to whoever reads out this tab I made :) I was extremely bored on Christmas Eve, so I tabbed out one of 
my favorite songs. I tabbed this out for FUN using cool chords I could come up with. Let me know what you 
think of em!

         e|-6------|-4-------|-----------|-8-------|---------|-8-------|-8-----------|---------|-4-------|
         B|-6------|-4-------|-9-----8---|-8-------|-6-------|-9-------|-8--------8--|-4-------|-4-------|
         G|-6------|-5-------|-10----8---|-8-------|-6-------|-8-------|-8-----6--6--|-5-------|-6-------|
         D|-8------|-6-------|-10----8---|-10------|-6-------|---------|-10----5--8--|-5-------|-4-------|
         A|--------|-6-------|-----------|-11------|---------|-8-------|-10----4--6--|---------|-6-------| 
         E|--------|-4-------|-9-----8---|-8-------|-4-------|---------|-8-----4--6--|-4-------|---------| 
"Come with|me..."                                                                        "We'll|begin..."

e|---------|-----------|-8-------|----------|-11-------|---------|----------1--------|----------1--------|
B|-5-------|-9-----8---|-8-------|-9--------|-13-------|---------|------------1------|------------1------|
G|-5-------|-10----8---|-8-------|-10-------|-11-------|---------|--------1-----2----|--------1-----2----|
D|-4-------|-10----8---|-10------|-11-------|-13-------|---------|------3---------3--|------3---------3--|
A|---------|-----------|-11------|-9--------|-11-------|-6---4---|----3--------------|----3--------------|
E|-4-------|-9-----8---|-8-------|----------|----------|---------|--1----------------|--1----------------|
                                                       |"Ex-  pli-  nation..."


e|---8-7-----8-7---|---8-7---------|-1----1---|---------|---------|-4-------|-3---3--2--|-1-------|
B|-----------------|-------------8-|-2----2---|-1-------|-2-------|-6-------|-4---4--3--|-2-------|
G|-----------------|---------------|-1----3---|-1-------|-3-------|-5-------|-5---5--2--|-3-------|
D|-----------------|---------------|-4----3---|-3-------|-3-------|-6-------|-5---5--4--|-3-------|
A|-----------------|---------------|----------|-3-------|-4-------|-4-------|-3---3--2--|-1-------|
E|-8-----7-8-----7-|-8-----7-8-----|----------|-1-------|-2-------|-4-------|-----------|---------|
                                   |"If you want to view..."  


e|----------|---------10--(VAMP)|-11--------|
B|-7--------|-9---9---12--(VAMP)|-11--------|
G|-8--------|-10--10--11--(VAMP)|-13--------|
D|-8--------|-10--10--12--(VAMP)|-12--------|
A|-9--------|---------10--(VAMP)|-11--------|
E|-7------9-|-8---9---10--(VAMP)|-11--------|
       "Theres No-thing-toooo... Itttt..."



***(VAMP)>>> Hold on the chord for as long as you like.


************************************

I made this from scratch using whatever chords I could come up with to have fun. It is in no means 
100% accurate to the original or whatever version you've heard elsewhere. Let me know what you think!

************************************
Suggest correction
Creating personal tab
Creating personal tab
You can edit any tab online and save it as your Personal.

You can edit, replace or remove any tab part or add personal notes – all changes will be seen only by you.

Personal tabs can be accessed anytime from any device, even offline.
Learn more »
comments
print report bad tab
3 comments total.
0 reply
von-bentzki 10 Apr 04, 2017 08:55 AM

if it's by no means accurate then why waste my time

0 reply
66paintman 10 Jul 01, 2017 11:15 PM

couldn't have said it better.

guest
You may want to rate the tab now too:
select rating
Wanna post a correction for this tab? Suggest correction