Oops, an error
Loading. Please wait.

X Men Theme tab

version 1
version 1

Whole song

29,616 views 48 this week
4 commentsread comments
1 2 3 4 5
x 11
add to favorites
×
Save as Personal and add changes to this tab that will be seen only by you. Learn more ›
×
You can save this tab as Personal to edit and correct it or add notes. All changes will be seen only by you. Learn more »
launch autoscroll
font size
0
reset
how to read this tab
guitar tuner
edit
Autoscroll
slow
fast
+/-
esc
set tempo
stop
Author
Unregistered
Title: X-Men Theme
Transcribed by: Mark Casey
Email: pennybridge_pioneer69@hotmail.com

Here is the intro bassline that is repeated throughout:

G------------------------------------------------------------------------------|
D---------0-0-----0-0-0-0-2-2-0-0---------0-0-----0-0-0-0-2-2-0-0--------------|
A-2-2-2-2-----2-2-----------------2-2-2-2-----2-2------------------------------|
E------------------------------------------------------------------------------|

then for the guitar part: (listen for the rhythm)

e|------------------------------------------------------------------------------|
B|-----2-3-2-------------2-3-2------------2-3-2----3----2-----------------------|
G|---4--------4--------4--------4-------4--------4--------4---------------------|
D|-4------------4----4------------5---4-----------------------------------------|
A|------------------------------------------------------------------------------|
E|------------------------------------------------------------------------------|


e|------------------------------------------------------------------------------|
B|---5-7-8-7--5-------5-7-8-7--5---------2-3-2----3----2------------------------|
G|-4------------4---4------------5-----4--------4--------4----------------------|
D|-----------------------------------4------------------------------------------|
A|------------------------------------------------------------------------------|
E|------------------------------------------------------------------------------|

then there is another bassline:

G------------------------------------------------------------------------------|
D-4-4-4-4-4-4-4-4-4-4-4-4-4-4-4-4-5-5-5-5-5-5-5-5-5-5-5-5-5-5-5-5--------------|
A------------------------------------------------------------------------------|
E------------------------------------------------------------------------------|

G------------------------------------------------------------------------------|
D-7-7-7-7-7-7-7-7-7-7-7-7-5-5-5-5-4-4-4-4-4-4-4-4-4----------------------------|
A------------------------------------------------------------------------------|
E------------------------------------------------------------------------------|

then back to the guitar:

e|------------------------------------------------------------------------------|
B|-----2-3-2----3-------2-3-2------------2-3-2---3----2-------------------------|
G|---4--------4-------4--------4-------4-------4--------4-----------------------|
D|-4----------------4------------5---4------------------------------------------|
A|------------------------------------------------------------------------------|
E|------------------------------------------------------------------------------|


e|------------------------------------------------------------------------------|
B|---5-7-8-7--5-------5-7-8-7--5-------2-3-2----3----2--------------------------|
G|-4------------4---4------------5------------4--------4------------------------|
D|-----------------------------------4------------------------------------------|
A|------------------------------------------------------------------------------|
E|------------------------------------------------------------------------------|

then back to the bassline:

G------------------------------------------------------------------------------|
D-4-4-4-4-4-4-4-4-4-4-4-4-4-4-4-4-5-5-5-5-5-5-5-5-5-5-5-5-5-5-5-5--------------|
A------------------------------------------------------------------------------|
E------------------------------------------------------------------------------|

G------------------------------------------------------------------------------|
D-7-7-7-7-7-7-7-7-7-7-7-7-5-5-5-5-4-4-4-4-4-4-4-4-4----------------------------|
A------------------------------------------------------------------------------|
E------------------------------------------------------------------------------|

then for the ending:

e|-------------------2-7vvv-----------------------------------------------------|
B|-----2-3-2----3---------------------------------------------------------------|
G|---4--------4-----------------------------------------------------------------|
D|-4----------------------------------------------------------------------------|
A|------------------------------------------------------------------------------|
E|------------------------------------------------------------------------------|

            
            
Suggest correction
Creating personal tab
Creating personal tab
You can edit any tab online and save it as your Personal.

You can edit, replace or remove any tab part or add personal notes – all changes will be seen only by you.

Personal tabs can be accessed anytime from any device, even offline.
Learn more »
comments
print report bad tab
4 comments total. Showing first comments.
0 reply
SinisterSinner7 21 May 30, 2008 02:10 AM

Dead on!

0 reply
hung daddy 10 Sep 29, 2008 02:55 PM

is this the tab from the movie or the cartoon because the intro song to the cartoon was freakin awesome(the cartoon from the 90's)

0 reply
vorbis 10 Apr 08, 2010 12:53 PM

Love this! 5/5, I also figured out the pre-ending, which sounds awesome on really fuzzy electric guitar

--------------------------------------------------------
--------------------------------------------------------
--------------------------------------------------------
--------------------------------------------------------
--------------------------------------------------------
---3--2--1--3--2--1--3--2--1--3--2--1--5--3--2--5--3--2-

--------------------------------------------------------
--------------------------------------------------------
--------------------------------------------------------
----------------------------------------------------5p4-
--------------------------------------------------2-----
---5--3--2--5--3--2--7--5--3--7--5--3--7--5--3--5-------

guest
Wanna post a correction for this tab? Suggest correction