Oops, an error
Loading. Please wait.

Yu-Gi-Oh Theme Tab

22,626 views 66 this week
7 commentsread comments
1 2 3 4 5
excellent!
x 5
add to favorites
launch autoscroll
font size
0
reset
how to read this tab
guitar tuner
Autoscroll
slow
fast
+/-
esc
set tempo
stop
Help us to improve Ultimate-Guitar.com Take our survey!
×
Author
-------------------------------------------------------------------------------
			     Yu-Gi-Oh! Movie Theme - Various
-------------------------------------------------------------------------------
Tabbed by: ygokazuki
Email: ygokazuki@gmail.com

Tuning: Standard EBGDAe

Intro (whammy bar sounds cool)
e|-8-6-8b9~r\|2h3~~~~~~~~~~~~~~~~~~~~~~~~~~~~~~~~~~~~~~~~~~~~~~~~~~~~~~~~~~~~~-|
B|-----------|-----------------------------------------------------------------|
G|-----------|---------------------------------------------------------9\------|
D|-----------|---------------------------------------------------------9\------|
A|-----------|---------------------------------------------------------7\------|
E|-----------|-----------------------------------------------------------------|
fl		X---------------------------------------------------->
		   "Your move, your move, your move, your move, your MOVE!"
	e|--------------------------------------------------|
	B|--------------------------------------------------|
	G|------9-----9---------9-----9---------9-----9-----|
	D|--9-9-9-9-9-9-9-9-9-9-9-9-9-9-9-9-9-9-9-9-9-9-9-9-|
	A|--7-7-7-7-7-7-7-7-7-7-7-7-7-7-7-7-7-7-7-7-7-7-7-7-|
	E|--------------------------------------------------|
	pm  X X   X X   X X X X   X X   X X X X   X X   X X
						 "Yu-Gi-Oh!"
	e|----------------------------|
	B|----------------------------|
	G|----------------------------|
	D|----------------------------| tremolo pick wildly and randomly
	A|-17-16-15-14-13-12-13-14-15-|
	E|-15-14-13-12-11-10-11-12-13-|

Verse 1
e|-----------|---------------|
B|-----------|---------------|
G|-----------|-2-4-5--9-8-7--|
D|-2--10-9-8-|-2-4-5--9-8-7--|
A|-2--10-9-8-|---------------|
E|-----------|---------------|

Bridge 1
e|------------------------------|---------------------------------|-5h6~-|
B|------------------------------|---------------------------------|-5----|
G|----------------2-2-----------|---------------------------------|------|
D|----------------0-0-4-5-4-5-4-|---------------------------------|------|
A|-2-2-4-5-4-5-4------2-3-2-3-2-|-2-------------------------------|------|
E|-0-0-2-3-2-3-2----------------|-0-------------------------------|------|
pm X X X X X X X  X X X X X X X
				 "It's time to d-d-d-d-ddddddduel!"
Chorus
e|----------|--------|-----------|---------|
B|----------|--------|-----------|---------|
G|---4-2----|---4-2--|-----------|---------|
D|-2-4-2----|-2-4-2--|-2-5-4-----|---------|
A|-2------5-|-2------|-2-5-4-5-5-|-3-3/7-7-|
E|--------5-|--------|-------5-5-|-3-3/7-7-|

Bridge 2
e|---------------------------------|
B|---------------------------------|
G|---------------------------------|
D|-----2-----2---------2-----2-----|
A|-2-2-2-2-2-2-2-2-2-2-2-2-2-2-2-2-|
E|-0-0-0-0-0-0-0-0-0-0-0-0-0-0-0-0-|
pm X X   X X   X X X X   X X   X X
fl X----------------------------->
	   "Your move!"
  "Yu-Gi-Oh is the King of Games!"

Verse 2
e|---------|---------|-----------------|---------|--------|-7--6-7-0-|
B|-0-----0-|---------|-----------------|---------|--------|----------|
G|-0-3-0-0-|-------0-|-3-2-3-5-2-3p2p0-|-------0-|-4--3-4-|----------|
D|---3-0---|-2-2-2-0-|-3-2-3-5-2-------|-2-2-2-0-|-4--3-4-|----------|
A|---------|-2-2-2---|-----------------|-2-2-2---|--------|----------|
E|---------|---------|-----------------|---------|--------|----------|

e|-----------------------------------|
B|-----------------------------------|
G|-----------------------------------|
D|-----------------------------------|
A|-----------------------------------|
E|-----------------------------------|
  "It's time to d-d-d-d-dddddddduel!"

Chorus Variation
e|----------|--------|-----------|
B|----------|--------|-----------|
G|---4-2----|---4-2--|-----------|
D|-2-4-2----|-2-4-2--|-2-5-4---2-|
A|-2------5-|-2------|-2-5-4-5-2-|
E|--------5-|--------|-------5---|

Outro
e|------------------------------------|
B|------------------------------------|
G|------------------------------------|
D|-2--2-3-4-5-6-7-8-9-10-11-12-13-14:-| tremolo pick wildly and randomly
A|-2--2-3-4-5-6-7-8-9-10-11-12-13-14:-|
E|--------------------------------12:-|

| /  slide up
| \  slide down
| h  hammer-on
| p  pull-off
| ~  vibrato
| +  harmonic
| x  Mute note
| pm palm mute X
| fl turn on flanger at X and leave on until >, then reset
===============================================================================
Suggest correction
comments
print report bad tab
7 comments total. Showing first comments. show 1 bad comment
0 reply
AK-47 10 wrote on August 5 2006, 10:57 am

3 words: Cristopher likes Barbies

0 reply
AK-47 10 wrote on August 22 2006, 09:01 pm

yea u heard me ygokazuki!

guest
You may want to rate the tab now too:
select rating
Please do not post tabs as comments. Select "correction" instead!