Oops, an error
Loading. Please wait.

Yuvan Shankar Raja - Ven Megam Pennaga tab

190 views 1 this week
no commentswrite comment
1 2 3 4 5
2 more votes to show rating
add to favorites
×
Save as Personal and add changes to this tab that will be seen only by you. Learn more ›
×
You can save this tab as Personal to edit and correct it or add notes. All changes will be seen only by you. Learn more »
launch autoscroll
font size
0
reset
how to read this tab
guitar tuner
edit
Autoscroll
slow
fast
+/-
esc
set tempo
stop


    Venmegham pennagha uruvaanatho ,
    en neram ennai paarththu villaiyaadutho      unnalae pala gnaabagham, en munnae vanthaaduthae
E|--[3-3-3----3-3-3----2-5---5-5-5-----|X2--------------3--6-5---3-2-0-------0-2-3--5-3-3--|
B|-------------------------------------|---------------------------------3--3--------------|
G|-------------------------------------|---------------------------------------------------|
D|-------------------------------------|---------------------------------------------------|
A|-------------------------------------|---------------------------------------------------|
E|-------------------------------------|---------------------------------------------------|


 oru nenjam thindaduthae       vaarththai oru vaarthai sonnal enna? paarvai oru paarvai paarththaal enna?
E|----0-2-3--5-3-3--------------7-10--------9-7-6-7-9-9------------------7-10--------9-7-6-7-9-9--|
B|--3---------------------------------------------------------------------------------------------|
G|------------------------------------------------------------------------------------------------|
D|------------------------------------------------------------------------------------------------|
A|------------------------------------------------------------------------------------------------|
E|------------------------------------------------------------------------------------------------|


   unnalae pala gnaabagham, en munnae vanthaaduthae,oru nenjam thindaduthae
E|----3--6-5---3-2-0-----------0-2-3--5-3-3-------------0-2-3--5-3-3---------|
B|----------------------3--3--------------------------3----------------------|
G|---------------------------------------------------------------------------|
D|---------------------------------------------------------------------------|
A|---------------------------------------------------------------------------|
E|---------------------------------------------------------------------------|


And the song goes on


            
            
Suggest correction
Creating personal tab
Creating personal tab
You can edit any tab online and save it as your Personal.

You can edit, replace or remove any tab part or add personal notes – all changes will be seen only by you.

Personal tabs can be accessed anytime from any device, even offline.
Learn more »
Give kudos to tab author, rate the tab!
1 2 3 4 5
comments
print report bad tab
guest
You may want to rate the tab now too:
select rating
Wanna post a correction for this tab? Suggest correction