Oops, an error
Loading. Please wait.

Zootopia - Walk And Stalk Tab

37 views 12 this week
no commentswrite comment
1 2 3 4 5
2 more votes to show rating
add to favorites
launch autoscroll
font size
0
reset
how to read this tab
guitar tuner
Autoscroll
slow
fast
+/-
esc
set tempo
stop
Help us to improve Ultimate-Guitar.com Take our survey!
×
Author
Difficulty
novice
About this tab version
This is the guitar tab that mimics the lead xylophone part. This does not include the bass line before the chorus, nor the additional xylophone part before the outro. Was this info helpful? Yes No
Based on Michael Giacchino's "Walk and Stalk" written for Zootopia.

Link to the piece:  https://www.youtube.com/watch?v=WRqNkv-frDA

[Intro]

e|----------------6-----6----------------------|---------------6----6---------|
B|--8---6---6--8------6---8-6---8--6---6--8----|--8--6---6--8-----6---8-6---8-|
G|--------7-------------------7------7-------7-|-------7------------------7---|
D|---------------------------------------------|------------------------------|
A|---------------------------------------------|------------------------------|
E|---------------------------------------------|------------------------------|

e|---------------------------------------------------------------------------|
B|-6---6--8------------------------------------------------------------------|
G|---7-----------------------------------------------------------------------|
D|---------------------------------------------------------------------------|
A|---------------------------------------------------------------------------|
E|---------------------------------------------------------------------------|


[Chorus](After the bass line)

e|---------------6----6-------------------|-6----6-------------------6----6---|
B|--8--6---6--8-----6---8-6----8--6---6-8-|----6---8-6---8--6---6-8-----6---8-|
G|-------7------------------7-------7-----|------------7------7---------------|
D|----------------------------------------|-----------------------------------|
A|----------------------------------------|-----------------------------------|
E|----------------------------------------|-----------------------------------|

e|---------------------------------------------------------------------------|
B|--6---8--8-7-7--8----------------------------------------------------------|
G|----7----------------------------------------------------------------------|
D|---------------------------------------------------------------------------|
A|---------------------------------------------------------------------------|
E|---------------------------------------------------------------------------|


e|---------------6----6-----------------|--------------------6---6-------------|
B|--8--6---6--8-----6---8-6----8--6---6-|-8------6-8--6---6----6---8-6---8--6--|
G|-------7------------------7-------7---|---7--7--------7--------------7-------|
D|--------------------------------------|--------------------------------------|
A|--------------------------------------|--------------------------------------|
E|--------------------------------------|--------------------------------------|

e|---------------------------------------------------------------------------|
B|---6-8---------------------------------------------------------------------|
G|-7-----7-------------------------------------------------------------------|
D|---------------------------------------------------------------------------|
A|---------------------------------------------------------------------------|
E|---------------------------------------------------------------------------|

[Outro]

e|--------6-------------6----------------------------------------------------|
B|--8-------8-6---8-------8-6---8--------------------------------------------|
G|----7---------7---7---------7----------------------------------------------|
D|---------------------------------------------------------------------------|
A|---------------------------------------------------------------------------|
E|---------------------------------------------------------------------------|


Suggest correction
Give kudos to tab author, rate the tab!
1 2 3 4 5
comments
print report bad tab
guest
You may want to rate the tab now too:
select rating
Wanna post a correction for this tab? Suggest correction