Oops, an error
Loading. Please wait.

Batman The Animated Series - Say Were Sweethearts Again Bass Tab

52 views 6 this week
no commentswrite comment
1 2 3 4 5
3 more votes to show rating
add to favorites
launch autoscroll
font size
0
reset
guitar tuner
Autoscroll
slow
fast
+/-
esc
set tempo
stop
Help us to improve Ultimate-Guitar.com Take our survey!
×
Author
Difficulty
Performed by Harley Quinn in the episode "Harlequinade" of the TV show Batman: The Animated Series (1994)

[Verse 1]: "I never knew that our romance had ended..."
G|-------------------------------------------------------------|
D|----------6-------8---8--------------------------------------|
A|-6------------8------------------------------8-----------6-6-|
E|--------------------------6-8---7--6---8-8-------6---6-------|


[Verse 2]: "I never knew, that you and I were finished..."
G|---------------------------------------------------------------------|
D|-6-------8-------5-6-------8-----------------------------------6---6-|
A|-----8-------6---------8-------8-----------------------8-----6-------|
E|---------------------------------8-6---8--7--6---8-8-------6---------|


[Bridge]: "It wouldn't have been so bad , if you had told me..."
G|-------------------------------------------------------------------------------|
D|-------5-6---------5-6-------------------5-6-----------------------------------|
A|-5-6---------6---7-------6-4---6---7-8---------8-------8-------6---8---------6-|
E|---------------------------------------------------6-------6-----------8-6-----|


[Verse 3]: "You'll never know, how my poor heart is breaking..."
G|--------------------------------------------------------------------|
D|-6-------8-------5-6-------8--------------------------------------6-|
A|-----8-------6---------8-8-----8-------------------10-------6--6----|
E|---------------------8-----------8-6---8--7----6------8-6-----------|
Suggest correction
Give kudos to tab author, rate the tab!
1 2 3 4 5
comments
print report bad tab
guest
You may want to rate the tab now too:
select rating
Wanna post a correction for this tab? Suggest correction