Oops, an error
Loading. Please wait.

Bear In The Big Blue House - Goodbye Song Tab

26,812 views 33 this week
no commentswrite comment
1 2 3 4 5
x 17
add to favorites
launch autoscroll
font size
0
reset
how to read this tab
guitar tuner
Autoscroll
slow
fast
+/-
esc
set tempo
stop
Author
Ok, well this is my first ever tab, and I'm fairly confident about it.
For chords, I've tabbed a few of them as open, because that's how I prefer the sound, 
you can play them:

     C          Dm
e|---3----    --5---|
B|---5----    --6---|
G|---5----    --7---|
D|---5----    --7---|
A|---3----    --5---|
E|--------    ------|

There's one other one I've seen on the net, and that's got the right idea. However it's 
the chords a bit wrong, so here it is:

e|---1----1-1--|
B|-----1-----1-|
G|-2-----3-----|x2
D|-3-----3-3---|
A|-------------|
E|-------------|

 Anything that uses those notes sounds good really. Or you can just play F and Fsus4.

   F           F/A          Bb                   Bb  C
   Hey this was really fun, we hope you liked it too
e|-1------------1-----------1---------------------1--0-|
B|-1------------1-----------3---------------------3--1-|
G|-2------------2-----------3---------------------3--0-|
D|-3------------3-----------3---------------------3--2-|
A|-3------------0-----------1---------------------1--3-|
E|-1---------------------------------------------------|

  F               F/A              Bb             Dm   C
  Seems like we've just begun, When suddenly we're through
E-1----------------1----------------1--------------1---0-|
B-1----------------1----------------3--------------3---1-|
G-2----------------2----------------3--------------2---0-|
D-3----------------3----------------3--------------0---2-|
A-3----------------0----------------1------------------3-|
E-1------------------------------------------------------|

[Chorus]
        F        Bb       C          F
   Goodbye, Goodbye, Good friends Goodbye
e|------1--------1--------0----------1-|
B|------1--------3--------1----------1-|
G|------2--------3--------0----------2-|
D|------3--------3--------2----------3-|
A|------3--------1--------3----------3-|
E|------1----------------------------1-|

       F        Bb     C
 Cause now it's time to go
e|-----1--------1------0-|
B|-----1--------3------1-|
G|-----2--------3------0-|
D|-----3--------3------2-|
A|-----3--------1------3-|
E|-----1-----------------|

     F      Bb        C      Dm             Bb            C       F
 But Hey, I say, Well that's Ok, Cause we'll see you very soon I know
e|---1------1---------0------1---------------1------------0-------1-|
B|---1------3---------1------3---------------3------------1-------1-|
G|---2------3---------0------2---------------3------------0-------2-|
D|---3------3---------2------0---------------3------------2-------3-|
A|---3------1---------3----------------------1------------3-------3-|
E|---1------------------------------------------------------------1-|

   F
  Very soon I know
e|-1-------------|
B|-1-------------|
G|-2-------------|
D|-3-------------|
A|-3-------------|
E|-1-------------|

     Ab      Db         Eb          Ab       Ab            Db     Eb
 Goodbye, Goodbye, Good Friends Goodbye, And tomorrow just like today
e|---4-------4----------6-----------4--------4-------------4------6-|
B|---4-------6----------8-----------4--------4-------------6------8-|
G|---5-------6----------8-----------5--------5-------------6------8-|
D|---6-------6----------8-----------6--------6-------------6------8-|
A|---6-------4----------6-----------6--------6-------------4------6-|
E|---4------------------------------4--------4----------------------|

     Ab       Db           Eb       Gbm           Db
 The Moon the Bear and the Big Blue house will be waiting for you
e|---4--------4------------6--------8-------------4------------|
B|---4--------6------------8--------9-------------6------------|
G|---5--------6------------8--------10------------6------------|
D|---6--------6------------8--------10------------6------------|
A|---6--------4------------6--------8-------------4------------|
E|---4---------------------------------------------------------|

    Eb       Ab
 To come and play
e|--6--------4----|
B|--8--------4----|
G|--8--------5----| x3
D|--8--------6----|
A|--6--------6----|
E|-----------4----|

   Ab
  Bye Now!
e|-4-------|
B|-4-------|
G|-5-------|
D|-6-------|
A|-6-------|
E|-4-------|

Please Rate!
Suggest correction
comments
print report bad tab
guest
You may want to rate the tab now too:
select rating
Wanna post a correction for this tab? Suggest correction