Oops, an error
Loading. Please wait.

Black Toast - Crash And Burn Tab

19 views 1 this week
no commentswrite comment
1 2 3 4 5
3 more votes to show rating
add to favorites
launch autoscroll
font size
0
reset
how to read this tab
guitar tuner
Autoscroll
slow
fast
+/-
esc
set tempo
stop
Help us to improve Ultimate-Guitar.com Take our survey!
×
Author
Difficulty
novice
About this tab version
Standard tuning, pre-chorus is dumbed down a bit. Was this info helpful? Yes No
[Intro]

E|----------------------| |-3-3-3-3-3-3-3-3-|
B|----------------------| |-4-4-4-4-4-4-4-4-|
G|-------------------8--| |-5-5-5-5-5-5-5-5-|     
D|--------------5-5/8---| |-----------------|
A|-2b3-0-0-0-2/5--------| |-----------------|
E|----------------------| |-----------------|

E|----------------------| |------------------------|
B|----------------------| |------------------------|
G|-------------------8--| |------------------------|
D|--------------5-5/8---| |-------------5-5p0------|
A|-2b3-0-0-0-2/5--------| |-2b3-0-0-0-2/5------0h5-|
E|----------------------| |----------------------3-|


[Verse 1]

E|----------------------| |----------------------|
B|----------------------| |----------------------| 
G|-------------------8--| |----------------------|
D|--------------5-5/8---| |--------------5-5-----|
A|-2b3-0-0-0-2/5--------| |-2b3-0-0-0-2/5----5-6-|
E|----------------------| |------------------3-4-|(x4)


[Pre-Chorus]

E|----------------| |-------------|
B|-3-3-0-1---0-3\-| |-3-3-0-1-----|
G|----------------| |-----------0-|
D|----------------| |---------2---|
A|----------------| |-------------|
E|----------------| |-------------|(x4)

Or play verse


[Chorus]

C Am F G# (x4)


[Verse 2]

E|----------------------| |----------------------|
B|----------------------| |----------------------| 
G|-------------------8--| |----------------------| 
D|--------------5-5/8---| |--------------5-5-----|
A|-2b3-0-0-0-2/5--------| |-2b3-0-0-0-2/5----5-6-|
E|----------------------| |------------------3-4-|(x4)


[Pre-Chorus]

E|----------------| |-------------|
B|-3-3-0-1---0-3\-| |-3-3-0-1-----|
G|----------------| |-----------0-| 
D|----------------| |---------2---|
A|----------------| |-------------|
E|----------------| |-------------|(x4)

Or play verse

[Chorus]

C Am F G# x4


[Weird Bit]

C#5 D#5


[Chorus]

(Clean)
C Am F G# (x2)

(Distorted)
C Am F G# (x2)


[Chorus]

C Am F G# (x4)


[Outro]

C (with 3 on high E)



************************************

| h  Hammer-on
| p  Pull-off
| b  Bend
| /  Slide up
| \  Slide down   

************************************
Suggest correction
Give kudos to tab author, rate the tab!
1 2 3 4 5
comments
print report bad tab
guest
You may want to rate the tab now too:
select rating
Wanna post a correction for this tab? Suggest correction