Oops, an error
Loading. Please wait.

Doctor Who - Claras Theme tab

17,881 views 216 this week
5 commentsread comments
1 2 3 4 5
x 80
add to favorites
×
Save as Personal and add changes to this tab that will be seen only by you. Learn more ›
×
You can save this tab as Personal to edit and correct it or add notes. All changes will be seen only by you. Learn more »
launch autoscroll
font size
0
reset
how to read this tab
guitar tuner
edit
Autoscroll
slow
fast
+/-
esc
set tempo
stop
Simplified version, played along with this version (https://www.youtube.com/watch?v=cxrC3ztKh1c)
Let me know if any corrections are needed.

[Beginning]
[Part 1]
   [G]                              [Am]                  [G]|[2nd time only]
E|--3--------------------------------0-----------0---------3-|---------------|
B|--0-----0--0--0-----0--1--3--1--0--1-----1--3------3--1--0-|---0-----------|
G|--0--------------------------------2---------------------0-|--------0------|
D|--0--------------------------------2---------------------0-|---------------|
A|--2--------------------------------0---------------------2-|---------------|
E|--3------------------------------------------------------3-|---------------|

[Part 2]
   [C]                              [Bm]                 [C]                  [G]
E|--0-----0--0--0-----0--2--3--2--0--2--------0--2--0-----0-----------0--------3--|
B|--1--------------------------------3-----3-----------3--1-----1--3-----3--1--0--|
G|--0--------------------------------4--------------------0--------------------0--|
D|--2--------------------------------4--------------------2--------------------0--|
A|--3--------------------------------2--------------------3--------------------2--|
E|-----------------------------------------------------------------------------3--|

Play Part 1 here with the last little bit

[Part 3]
   [G]
E|--3--------------------------3--2--------------------------------------|
B|--3--------1--0--------------------3--------------1--0-----------------|
G|--0--------------2--0--2--------------2-----------------2--0--2--2--0--|
D|--0--------------------0--------------------------------------0--------|
A|--2--2--3----------------------------------2--3------------------------|
E|--3--------------------------------------------------------------------|

[Part 4]
                       [Em]              [C]   [D+4]    [Em]
E|----------------------0-----3-2-0----------------------0-----------|
B|----------------------0------------3-0--1------3-------0-----------|
G|--4-(x12)---7-(x12)---0-----------------0------0-------0-----------|
D|--4-(x12)---7-(x12)---2-----------------2------4-------2-----------|
A|--2-(x12)---5-(x12)---2-----------------3------5-------2-----------|
E|-------------------------------------------------------0-----------|

            
            
Suggest correction
Creating personal tab
Creating personal tab
You can edit any tab online and save it as your Personal.

You can edit, replace or remove any tab part or add personal notes – all changes will be seen only by you.

Personal tabs can be accessed anytime from any device, even offline.
Learn more »
comments
print report bad tab
5 comments total. Showing first comments.
0 reply
cheesedroid 10 Feb 11, 2016 11:59 AM

I know its just knit-picking, but that B is a B minor, you have it tabbed as a B minor but you call it a B, as I said, knit-picking.

0 reply
gregoire.soleil 10 Jun 21, 2016 08:00 AM

The -1--3--5--3--1 from part one can't be instead a :
------0------
1--3-----3--1

Or is it for the Glissando ?

Thank you for the tab, great job !

0 reply
annunoonoo 43 Jun 25, 2016 07:54 AM

Thanks! Wanted to try this since the episode aired.

guest
You may want to rate the tab now too:
select rating
Wanna post a correction for this tab? Suggest correction