Oops, an error
Loading. Please wait.

Doctor Who - Heaven Sent The Doctors Hell Tab

7 views 1 this week
no commentswrite comment
1 2 3 4 5
3 more votes to show rating
add to favorites
launch autoscroll
font size
0
reset
how to read this tab
guitar tuner
Autoscroll
slow
fast
+/-
esc
set tempo
stop
Help us to improve Ultimate-Guitar.com Take our survey!
×
Author
Difficulty
novice
My take on the song that plays during Season 9 Episode 11 Heaven Sent, as the 
Doctor makes his way back to the teleporter.
You'll have to listen to the song to get the timing right.

Composed by Murray Gold

[Verse 1]
e|------------------------------------------------------------------------|
B|------------------------------------------------------------------------|
G|------------------------------------------------------------------------|
D|--------0-2-0-------0---------0-2-----0-2-0-------0---------------------|
A|-3--0-3-------3-2-3---2-----3-------3-------3-1-3------0----------------|
E|------------------------4---------3------------------3------------------|

[Verse 2]
e|------------------------------------------------------------------------|
B|------------------------0-------0-----------------0---------------------|
G|---0-2--------0-----0-2-----0-2---2-0-----0---0-2---2-0-----------------|
D|-3--------2-3---3-2-------2-----------2-3-------------------------------|
A|--------3---------------------------------------------------------------|
E|--------------------------------------------3---------------------------|

e|------------------------------------------------------------------------|
B|---------0-1-3-1-0---0-1--0-1-3-1-0-------------------------------------|
G|-------------------2----------------2-----------------------------------|
D|-0-2-3-0----------------------------------------------------------------|
A|------------------------------------------------------------------------|
E|------------------------------------------------------------------------|

[Verse 3]
e|-----0-------0----------------0-1-0-----0-1---1-3-5-3-1-0-1-3-----------|
B|---1-----1-3---3-1-0-1-3----3-------3-3------------------------1-4------|
G|-0-----0------------------0-----------------3---------------------------|
D|------------------------------------------------------------------------|
A|------------------------------------------------------------------------|
E|------------------------------------------------------------------------|

[Verse 4]
e|------------0---------------------0-------0-----------------------------|
B|-1------1-3---3-1-0-1-3--0----1-3-----1-3---3-1---1-3-------------------|
G|---2--2--------------------1--------2-----------3------0-2--------------|
D|------------------------------------------------------------------------|
A|------------------------------------------------------------------------|
E|------------------------------------------------------------------------|

[Verse 5]
e|-1-3-5---0-1-3-1-0--3-5-7--0--3-5-7-5-3--0-1-3---3-5-7-5-3--------------|
B|-------1----------------------------------------------------------------|
G|-----------------------------------------------0------------------------|
D|------------------------------------------------------------------------|
A|------------------------------------------------------------------------|
E|------------------------------------------------------------------------|

e|---0-1----7-8-10-8-7-5-7-8--7-8-10-8-7-5--------------------------------|
B|-3------3----------------------------------0-1-3-1-0--------------------|
G|-----------------------------------------------------2------------------|
D|------------------------------------------------------------------------|
A|------------------------------------------------------------------------|
E|------------------------------------------------------------------------|




Suggest correction
Give kudos to tab author, rate the tab!
1 2 3 4 5
comments
print report bad tab
guest
You may want to rate the tab now too:
select rating
Wanna post a correction for this tab? Suggest correction