Oops, an error
Loading. Please wait.

Game Of Thrones Theme tab

version 4
version 4

Whole song

24,567 views 87 this week
no commentswrite comment
1 2 3 4 5
1 last vote to show rating
add to favorites
×
Save as Personal and add changes to this tab that will be seen only by you. Learn more ›
×
You can save this tab as Personal to edit and correct it or add notes. All changes will be seen only by you. Learn more »
launch autoscroll
font size
0
reset
how to read this tab
guitar tuner
edit
Autoscroll
slow
fast
+/-
esc
set tempo
stop
Author
Difficulty
intermediate
Artist - Ramin Djawadi
Title - Game of Thrones Theme

This is my arrangement for HBO's Game of Thrones main title theme.
Any comments, questions or queries then mail me at ruled_by_secrecy_6@homtmail.com

     Q    Q    E   E     Q    Q    E   E     Q    Q    E   E
e|-------------------|-------------------|-------------------|
B|-------------------|-------------------|-------------------|
G|--2----------------|-------------------|-------------------|
D|--2----------------|--2----------------|--2----------------|
A|--0----0----3h--5--|-------0----3h--5--|-------0----3h--5--|
E|-------------------|-------------------|-------------------|

    Q    Q    E   E     Q    Q    E   E     Q    Q    E   E     Q    Q    E   E
e|-------------------|-------------------|-------------------|-------------------|
B|-------------------|--2----------------|-------------------|-------------------|
G|-------------------|--2----------------|-------------------|-------------------|
D|--2----------------|--2----------------|--2----------------|--2----------------|
A|-------0----3h--5--|--0----0----4h--5--|-------0----4h--5--|-------0----4h--5--|
E|-------------------|-------------------|-------------------|-------------------|

    Q    Q    E   E     Q    Q    E  E     Q    Q    E  E     E  E  Q    E  E
e|-------------------|--0---------------|------------------|--------0----------|
B|-------------------|--1---------------|------------------|--1--3-------------|
G|-------------------|--2---------------|--2---------------|-------------------|
D|--2----------------|--2------------0--|--2------------0--|--2-------------0--|
A|-------0----4h--5--|-------0----3-----|-------0----3-----|--------0----3-----|
E|-------------------|------------------|------------------|-------------------|

    Q    Q    E  E     Q    Q    E   E     Q    Q    E   E     Q    Q    E  E
e|------------------|-------------------|-------------------|------------------|
B|------------3--1--|--0----------------|--0----------------|--0---------------|
G|--2---------------|------------0h--2--|------------0h--2--|------------0--2--|
D|--2------------0--|--2----------------|-------2-----------|-------2----------|
A|-------0----3-----|-------2-----------|-------------------|------------------|
E|------------------|-------------------|--0----------------|--0---------------|

    Q    Q    E  E     Q    Q    E   E     Q    Q    E   E
e|------------------|-------------------|-------------------|
B|--0---------------|--3----------------|-------------------|
G|------------0--2--|-------------------|--0----------------|
D|-------2----------|--0----------------|--0----------------|
A|------------------|------------2h--3--|------------2h--3--|
E|--0---------------|-------3-----------|-------3-----------|

    E   E  Q    E   E     Q    Q    E   E     E   E  Q    E   E
e|---------------------|-------------------|---------------------|
B|--1p--0--3-----------|-------------------|--1p--0--------------|
G|---------------------|--0----------------|---------2-----------|
D|--0------------------|--0----------------|--2------------------|
A|--------------2h--3--|------------2h--3--|---------0----3h--5--|
E|---------3-----------|-------3-----------|---------------------|

    Q    Q    E  E     Q    Q    E  E     Q    Q    E  E     Q    Q    E  E
e|------------------|------------------|------------------|--0---------------|
B|------------------|------------------|------------------|--1---------------|
G|------------------|------------------|------------------|--2---------------|
D|--2---------------|--2---------------|--2------------0--|--2------------0--|
A|-------0----3--5--|-------0----3--5--|-------0----3-----|-------0----3-----|
E|------------------|------------------|------------------|------------------|

    Q    Q    E  E     E  E  Q    E  E     Q    Q    E  E     Q    Q    E   E
e|------------------|--------0----------|------------------|-------------------|
B|------------------|--1--3-------------|------------3--1--|--0----------------|
G|--2---------------|-------------------|--2---------------|------------0h--2--|
D|--2------------0--|--2----------------|--2------------0--|--2----------------|
A|-------0----3-----|--------0----3--5--|-------0----3-----|-------2-----------|
E|------------------|-------------------|------------------|-------------------|

    Q    Q    E   E     Q    Q    E   E     Q    Q    E   E     Q    Q    E   E
e|-------------------|-------------------|-------------------|-------------------|
B|--0----------------|--0----------------|--0----------------|--3----------------|
G|------------0h--2--|------------0h--2--|------------0h--2--|-------------------|
D|-------2-----------|-------2-----------|-------2-----------|--0----------------|
A|-------------------|-------------------|-------------------|------------2h--3--|
E|--0----------------|--0----------------|--0----------------|-------3-----------|

    Q    Q    E   E     E   E  Q    E   E     Q    Q    E   E
e|-------------------|---------------------|-------------------|
B|-------------------|--1p--0--3-----------|-------------------|
G|--0----------------|---------------------|--0----------------|
D|--0----------------|--0------------------|--0----------------|
A|------------2h--3--|--------------2h--3--|------------2h--3--|
E|-------3-----------|---------3-----------|-------3-----------|

    E  E  Q    E   E     Q    Q    E  E     Q    Q    E  E     Q    Q    E  E
e|--------------------|------------------|------------------|------------------|
B|--1--0--------------|------------------|------------------|------------------|
G|--------2-----------|------------------|------------------|------------------|
D|--2-----------------|--2---------------|--2---------------|--2---------------|
A|--------0----3h--5--|-------0----3--5--|-------0----3--5--|-------0----3--5--|
E|--------------------|------------------|------------------|------------------|

    Q    Q    E   E     Q    Q    E  E     E  E  Q    E  E     Q    Q    E  E
e|--0----------------|------------------|--------0----------|------------------|
B|--1----------------|------------------|--1--3-------------|------------3--1--|
G|--2----------------|--2---------------|-------------------|--2---------------|
D|--2----------------|--2------------0--|--2----------------|--2------------0--|
A|-------0----3h--5--|-------0----3-----|--------0----3--5--|-------0----3-----|
E|-------------------|------------------|-------------------|------------------|

    Q    Q    E   E     Q    Q    E   E     Q    Q    E  E     Q    Q    E  E
e|-------------------|-------------------|------------------|------------------|
B|--0----------------|--0----------------|--0---------------|--0---------------|
G|------------0h--2--|------------0h--2--|------------0--2--|------------0--2--|
D|--2----------------|-------2-----------|-------2----------|-------2----------|
A|-------2-----------|-------------------|------------------|------------------|
E|-------------------|--0----------------|--0---------------|--0---------------|

    Q    Q    E   E     Q    Q    E   E     Q    E  E  E   E
e|-------------------|-------------------|--------------------|
B|--3----------------|-------------------|--0-------1---------|
G|--0----------------|--0----------------|--------------------|
D|--0----------------|--0----------------|--0-----------------|
A|------------2h--3--|------------2h--3--|-------------2h--3--|
E|-------3-----------|-------3-----------|-------3------------|

    Q    E  E  E   E     Q    Q    E  E     Q    Q    E  E     Q    Q    E  E
e|--------------------|------------------|------------------|------------------|
B|--0-----------------|------------------|------------------|------------------|
G|----------0---------|--2---------------|------------------|------------------|
D|--0-----------------|--2---------------|--2---------------|--2---------------|
A|-------------2h--3--|-------0----3--5--|-------0----3--5--|-------0----3--5--|
E|-------3------------|------------------|------------------|------------------|

    Q    Q    E  E     H.              H        E   E     H.
e|------------------|--5------------|--5--------3h--5--|--3------------|
B|------------------|--6------------|--6---------------|--1------------|
G|------------------|--5------------|--5---------------|--0------------|
D|--2---------------|---------------|------------------|--2------------|
A|-------0----3--5--|--8------------|--8---------------|--3------------|
E|------------------|---------------|------------------|---------------|

    H        E   E     Q.     Q.        H        E   E     H.
e|--3--------0h--1--|--0-------------|------------------|---------------|
B|--1---------------|--1-------------|-----------1h--3--|--0------------|
G|--0---------------|--2------2------|--2---------------|--0------------|
D|--2---------------|--2-------------|--2---------------|--2------------|
A|--3---------------|--0-------------|--0---------------|---------------|
E|------------------|----------------|------------------|--0------------|

    H        E   E     Q.     Q.        H.              H.
e|------------------|----------------|---------------|---------------|
B|--0--------0h--1--|----------------|---------------|--1------------|
G|--0---------------|--2-------------|---------------|--2------------|
D|--2---------------|--2------2------|--2------------|--2------------|
A|------------------|--0-------------|--0------------|--0------------|
E|--0---------------|----------------|---------------|---------------|

    H.              Q    Q    E   E     Q    Q    E   E     Q    Q    E   E
e|---------------|-------------------|-------------------|-------------------|
B|--3------------|--5----------------|--5----------------|--5----------------|
G|--0------------|--2----------------|-------------------|-------------------|
D|--0------------|--2----------------|--2----------------|--2----------------|
A|--2------------|--0----0----3h--5--|-------0----3h--5--|-------0----3h--5--|
E|---------------|-------------------|-------------------|-------------------|

    Q    Q    E   E     H.              H        E   E     H.
e|-------------------|--5------------|--5--------3h--5--|--3------------|
B|--5----------------|--6------------|--6---------------|--1------------|
G|-------------------|--5------------|--5---------------|--0------------|
D|--2----------------|---------------|------------------|--2------------|
A|-------0----3h--5--|--8------------|--8---------------|--3------------|
E|-------------------|---------------|------------------|---------------|

    H        E   E     Q.     Q.        H        E   E     H.
e|--3--------0h--1--|--0-------------|------------------|---------------|
B|--1---------------|--1-------------|-----------1h--3--|--0------------|
G|--0---------------|--2------2------|--2---------------|--0------------|
D|--2---------------|--2-------------|--2---------------|--2------------|
A|--3---------------|--0-------------|--0---------------|---------------|
E|------------------|----------------|------------------|--0------------|

    H        E   E     Q.     Q.        H.              H.
e|------------------|----------------|---------------|---------------|
B|--0--------0h--1--|----------------|---------------|--1------------|
G|--0---------------|--2-------------|---------------|--2------------|
D|--2---------------|--2------2------|--2------------|--2------------|
A|------------------|--0-------------|--0------------|--0------------|
E|--0---------------|----------------|---------------|---------------|

    H.              Q    Q    E   E     Q    Q    E   E     Q    Q    E   E
e|---------------|-------------------|--0----------------|--0----------------|
B|---------------|------------1h--3--|------------1h--3--|------------1h--3--|
G|--0------------|--2----------------|-------2-----------|-------2-----------|
D|--2------------|--2----2-----------|--2----------------|--2----------------|
A|--2------------|--0----------------|--0----------------|--0----------------|
E|--0------------|-------------------|-------------------|-------------------|

                        ^
    Q    Q    E   E     H.
e|--0----------------|---------------||
B|------------1h--3--|--5------------||
G|-------2-----------|--2------------||
D|--2----------------|--2------------||
A|--0----------------|--0------------||
E|-------------------|---------------||

************************************

| h  Hammer-on
| p  Pull-off

************************************
Suggest correction
Creating personal tab
Creating personal tab
You can edit any tab online and save it as your Personal.

You can edit, replace or remove any tab part or add personal notes – all changes will be seen only by you.

Personal tabs can be accessed anytime from any device, even offline.
Learn more »
Give kudos to tab author, rate the tab!
1 2 3 4 5
comments
print report bad tab
guest
You may want to rate the tab now too:
select rating
Wanna post a correction for this tab? Suggest correction