Oops, an error
Loading. Please wait.

Inspector Gadget tab

version 1
version 1

Whole song

Interactive

27,177 views 18 this week
5 commentsread comments
1 2 3 4 5
x 7
add to favorites
×
Save as Personal and add changes to this tab that will be seen only by you. Learn more ›
×
You can save this tab as Personal to edit and correct it or add notes. All changes will be seen only by you. Learn more »
launch autoscroll
font size
0
reset
how to read this tab
guitar tuner
edit
Autoscroll
slow
fast
+/-
esc
set tempo
stop
This should be 100% correct


e:-------------------------------------------------------|
b:-------------------------------------------------------|
g:-------------------------------------------------------|
d:-------------------------------------------------------|
a:-------------5--7-----6-----5--------------------------|
E:----5--7--8--------8-----7-----8-----------------------|

e:-------------------------------------------------------|
b:-------------------------------------------------------|
g:-------------------------------------------------------|
d:------------------8--6---------------------------------|
a:-------------5--7--------------------------------------|
E:----5--7--8--------------------------------------------|

e:-------------------------------------------------------|
b:-------------------------------------------------------|
g:-------------------------------------------------------|
d:-------------------------------------------------------|
a:-------------5--7-----6-----5--------------------------|
E:----5--7--8--------8-----7-----8-----------------------|

e:-------------------------------------------------------|
b:-------------------------------------------------------|
g:-------------------------------------------------------|
d:-------------------------------------------------------|
a:-------------------------------------------------------|
E:--5--4--3--2--1~----1/5--------------------------------|

            
            
Suggest correction
Creating personal tab
Creating personal tab
You can edit any tab online and save it as your Personal.

You can edit, replace or remove any tab part or add personal notes – all changes will be seen only by you.

Personal tabs can be accessed anytime from any device, even offline.
Learn more »
comments
print report bad tab
5 comments total. Showing first comments.
+3 reply
Kiltedmetalhed 10 Apr 18, 2008 07:55 PM

This sound better and is more accurate:

e:-------------------------------------------------------|
b:-------------------------------------------------------|
g:-------------------------------------------------------|
d:------------------7--6---------------------------------|
a:-------------5--7--------------------------------------|
E:----5--7--8--------------------------------------------|

+2 reply
Kiltedmetalhed 10 Apr 18, 2008 07:55 PM

This sound better and is more accurate:

e:-------------------------------------------------------|
b:-------------------------------------------------------|
g:-------------------------------------------------------|
d:------------------7--6---------------------------------|
a:-------------5--7--------------------------------------|
E:----5--7--8--------------------------------------------|

+2 reply
Kiltedmetalhed 10 Apr 18, 2008 07:55 PM

This sound better and is more accurate:

e:-------------------------------------------------------|
b:-------------------------------------------------------|
g:-------------------------------------------------------|
d:------------------7--6---------------------------------|
a:-------------5--7--------------------------------------|
E:----5--7--8--------------------------------------------|

guest
Wanna post a correction for this tab? Suggest correction