Oops, an error
Loading. Please wait.

Knight Rider Theme Tab

version 3
version 3

Whole song

Interactive

25,178 views 48 this week
1 commentread comment
1 2 3 4 5
x 6
add to favorites
launch autoscroll
font size
0
reset
how to read this tab
guitar tuner
Autoscroll
slow
fast
+/-
esc
set tempo
stop
Author
Difficulty
novice
Song   - Knight Rider theme
Tabbed - Jakob Jugovic
Mail   - jakobjugovic@gmail.com

[INTRO]
    o . . . o . . . o . . . o . . . o . . . o . . . o . . . o . . .
e |-----------------------------------------------------------------|
B |-----------------------------------------------------------------|
G |-----------------------------------------------------------------|
D |-4-4-----4-4-----4-4-------------4-4-------------4-4-------------|
A |-----------------------------------------------------------------|
E |-----------------------------------------------------------------|
  
   o . . . o . . . o . . . o . . . o . . . o . . . o . . . o . . .
E |-----------------------------------------------------------------|
B |-----------------------------------------------------------------|
G |-6---7-6-6-7-6-6-7-6-6-6-5-6-6-6-6---7-6-6-7-6-6-7-6-6-6-5-6-6-6-| > palm-mute
D |-----------------------------------------------------------------|
A |-----------------------------------------------------------------|
E |-----------------------------------------------------------------|

    o . . . o . . . o . . . o . . . o . . . o . . . o . . . o . . .
G |-----------------------------------------------------------------|
D |-2-2-----2-2-----2-2-------------2-2-------------2-2-------------|
A |-----------------------------------------------------------------|
E |-----------------------------------------------------------------|

    o . . . o . . . o . . . o . . . o . . . o . . . o . . . o . . .
E |-----------------------------------------------------------------|
B |-----------------------------------------------------------------|
G |-4---5-4-4-5-4-4-5-4-4-4-3-4-4-4-4---5-4-4-5-4-4-5-4-4-4-3-4-4-4-| > palm-mute
D |-----------------------------------------------------------------|
A |-----------------------------------------------------------------|
E |-----------------------------------------------------------------|

[DRUMS COME IN]
    o . . . o . . . o . . . o . . . o . . . o . . . o . . . o . . .
G |-----------------------------------------------------------------|
D |-4-4-----4-4-----4-4-------------4-4-------------4-4-------------|
A |-----------------------------------------------------------------|
E |-----------------------------------------------------------------|
 
    o . . . o . . . o . . . o . . . o . . . o . . . o . . . o . . .
E |-----------------------------------------------------------------|
B |-----------------------------------------------------------------|
G |-6---7-6-6-7-6-6-7-6-6-6-5-6-6-6-6---7-6-6-7-6-6-7-6-6-6-5-6-6-6-| > palm-mute
D |-----------------------------------------------------------------|
A |-----------------------------------------------------------------|
E |-----------------------------------------------------------------|

    o . . . o . . . o . . . o . . . o . . . o . . . o . . . o . . .
G |-----------------------------------------------------------------|
D |-5-5-----5-5-----5-5-------------5-5-------------5-5-------------|
A |-----------------------------------------------------------------|
E |-----------------------------------------------------------------|

    o . . . o . . . o . . . o . . . o . . . o . . . o . . . o . . .
E |-----------------------------------------------------------------|
B |-----------------------------------------------------------------|
G |-4---5-4-4-5-4-4-5-4-4-4-3-4-4-4-4---5-4-4-5-4-4-5-4-4-4-3-4-4-4-| > palm-mute
D |-----------------------------------------------------------------|
A |-----------------------------------------------------------------|
E |-----------------------------------------------------------------|

    o . . . o . . . o . . . o . . . o . . . o . . . o . . . o . . .
G |-----------------------------------------------------------------|
D |-4-4-----4-4-----4-4-------------4-4-------------4-4-------------|
A |-----------------------------------------------------------------|
E |-----------------------------------------------------------------|
 
    o . . . o . . . o . . . o . . . o . . . o . . . o . . . o . . .
E |-----------------------------------------------------------------|
B |-----------------------------------------------------------------|
G |-6---7-6-6-7-6-6-7-6-6-6-5-6-6-6-6---7-6-6-7-6-6-7-6-6-6-5-6-6-6-| > palm-mute
D |-----------------------------------------------------------------|
A |-----------------------------------------------------------------|
E |-----------------------------------------------------------------|

    o . . . o . . . o . . . o . . . o . . . o . . . o . . . o . . .
G |-----------------------------------------------------------------|
D |-2-2-----2-2-----2-2-------------2-2-------------2-2-------------|
A |-----------------------------------------------------------------|
E |-----------------------------------------------------------------|

    o . . . o . . . o . . . o . . . o . . . o . . . o . . . o . . .
E |-----------------------------------------------------------------|
B |-----------------------------------------------------------------|
G |-4---5-4-4-5-4-4-5-4-4-4-3-4-4-4-4---5-4-4-5-4-4-5-4-4-4-3-4-4-4-| > palm-mute
D |-----------------------------------------------------------------|
A |-----------------------------------------------------------------|
E |-----------------------------------------------------------------|

[ENTER KEYBOARDS - ARRANGED FOR GUITAR 'SOLO']
(old guitar riff follows new metrics)
    o . . . o . . . o . . . o . . . o . . . o . . . o . . . o . . . o . . . o . . .
G |---------------------------------------------------------------------------------|
D |-4-4-------------4-4-------------4-4-------------4-4-------------4-4-----4-4-----|
A |---------------------------------------------------------------------------------|
E |---------------------------------------------------------------------------------|
   
    o . . . o . . . o . . . o . . . o . . . o . . . o . . . o . . . o . . . o . . .
E |---------------------------------14--1514------------------------------------14--|
B |---------14------------------------------14------------------------------14------|
G |-11--1211--------------------------------------------------------11--1211--------|
D |---------------------------------------------------------------------------------|
A |---------------------------------------------------------------------------------|
E |---------------------------------------------------------------------------------|

    o . . . o . . . o . . . o . . . o . . . o . . .
G |-------------------------------------------------|
D |-2-2-------------2-2-------------2-2-----5-5-----|
A |-------------------------------------------------|
E |-------------------------------------------------|
   
    o . . . o . . . o . . . o . . . o . . . o . . . 
E |-12----------------------------------------------|
B |-------------------------------------------------|
G |-------------------------------------------------|
D |-------------------------------------------------|
A |-------------------------------------------------|
E |-------------------------------------------------|

    o . . . o . . . o . . . o . . . o . . . o . . . o . . . o . . . o . . . o . . .
G |---------------------------------------------------------------------------------|
D |-4-4-------------4-4-------------4-4-------------4-4-------------4-4-----4-4-----|
A |---------------------------------------------------------------------------------|
E |---------------------------------------------------------------------------------|
  
    o . . . o . . . o . . . o . . . o . . . o . . . o . . . o . . . o . . . o . . .
E |---------------------------------14--1514------------------------------------14--|
B |---------14------------------------------14------------------------------14------|
G |-11--1211--------------------------------------------------------11--1211--------|
D |---------------------------------------------------------------------------------|
A |---------------------------------------------------------------------------------|
E |---------------------------------------------------------------------------------|

    o . . . o . . . o . . . o . . . o . . . o . . . o . . . o . . . o . . . o . . .
G |----------------------------------------------------------------------------------|
D |-2-2-------------2-2-------------2-2-----2-2-----2-2-----2-2-----2----------------|
A |----------------------------------------------------------------------------------|
E |----------------------------------------------------------------------------------|
  
   o . . . o . . . o . . . o . . . o . . . o . . . o . . . o . . . o . . . o . . .
E |-15--------------------------------------------------------------------------15--|-14-|
B |---------------------------------------------------------------------------------|----|
G |---------------------------------------------------------------------------------|----|
D |---------------------------------------------------------------------------------|----|
A |---------------------------------------------------------------------------------|----|
E |---------------------------------------------------------------------------------|----|

[BRIDGE]
    o . . . o . . . o . . . o . . . o . . . o . . . o . . . o . . .
G |-----------------------------------------------------------------|
D |-4-4-----4-4-----4-4-------------4-4-------------4-4-------------|
A |-----------------------------------------------------------------|
E |-----------------------------------------------------------------|
   
    o . . . o . . . o . . . o . . . o . . . o . . . o . . . o . . .
E |-----------------------------------------------------------------|
B |-----------------------------------------------------------------|
G |-6---7-6-6-7-6-6-7-6-6-6-5-6-6-6-6---7-6-6-7-6-6-7-6-6-6-5-6-6-6-| > palm-mute
D |-----------------------------------------------------------------|
A |-----------------------------------------------------------------|
E |-----------------------------------------------------------------|

    o . . . o . . . o . . . o . . . o . . . o . . . o . . . o . . .
G |-----------------------------------------------------------------|
D |-2-2-----2-2-----2-2-------------2-2-------------2-2-------------|
A |-----------------------------------------------------------------|
E |-----------------------------------------------------------------|
   
    o . . . o . . . o . . . o . . . o . . . o . . . o . . . o . . .
E |-----------------------------------------------------------------|
B |-----------------------------------------------------------------|
G |-4---5-4-4-5-4-4-5-4-4-4-3-4-4-4-4---5-4-4-5-4-4-5-4-4-4-3-4-4-4-| > palm-mute
D |-----------------------------------------------------------------|
A |-----------------------------------------------------------------|
E |-----------------------------------------------------------------|

[ENTER KEYBOARDS]
(ARRANGED FOR GUITAR 'SOLO')
(old guitar riff follows new metrics)

    o . . . o . . . o . . . o . . . o . . . o . . .
G |-------------------------------------------------|
D |-4-4-----4-4-----4-4-------------4-4-------------|
A |-------------------------------------------------|
E |-------------------------------------------------|
  
    o . . . o . . . o . . . o . . . o . . . o . . .
E |-----------------14--1514--------------------14--|
B |---------14--------------14---------------14-----|
G |-11--1211------------------------11--1211--------|
D |-------------------------------------------------|
A |-------------------------------------------------|
E |-------------------------------------------------|

    o . . . o . . . o . . . o . . . o . . . o . . .
G |-------------------------------------------------|
D |-2-2-----2-2-----2-2-------------2-2-----2-2-----|
A |-------------------------------------------------|
E |-------------------------------------------------|

    o . . . o . . . o . . . o . . . o . . . o . . .
E |-12----------------------------------------------|
B |-------------------------------------------------|
G |-------------------------------------------------|
D |-------------------------------------------------|
A |-------------------------------------------------|
E |-------------------------------------------------|

    o . . . o . . . o . . . o . . . o . . . o . . .
G |-------------------------------------------------|
D |-4-4-----4-4-----4-4-------------4-4-------------|
A |-------------------------------------------------|
E |-------------------------------------------------|

    o . . . o . . . o . . . o . . . o . . . o . . .
E |-----------------14--1514--------------------14--|
B |---------14--------------14---------------14-----|
G |-11--1211------------------------11--1211--------|
D |-------------------------------------------------|
A |-------------------------------------------------|
E |-------------------------------------------------|

    o . . . o . . . o . . . o . . . o . . . o . . .
G |---------------------------------------------2---|
D |-2-2-------------2-2-------------2-2-------------|
A |-------------------------------------------------|
E |-------------------------------------------------|
  
    o . . . o . . . o . . . o . . . o . . . o . . .
E |-15----------------------------------------------|
B |-------------------------------------------------|
G |-------------------------------------------------|
D |-------------------------------------------------|
A |-------------------------------------------------|
E |-------------------------------------------------|

[ENDING]
    o . . . o . . . o . . . o . . . o . . . o . . . o . . . o . . .
G |-----------------------------------------------------------------|
D |-4-4-----4-4-----4-4-------------4-4-------------4-4-------------|
A |-----------------------------------------------------------------|
E |-----------------------------------------------------------------|

    o . . . o . . . o . . . o . . .
G |---------------------------------|
D |-2-2-----2-2-----2-2-------------|
A |---------------------------------|
E |---------------------------------|

    o . . . o . . . o . . . o . . . o . . . o . . . o . . . o . . .
G |-----------------------------------------------------------------|
D |-4-4-------------4-4-------------4-4-----4-4-------------4-------|
A |-----------------------------------------------------------------|
E |-----------------------------------------------------------------|

    o . . . o . . . o . . . o . . . o . . . o . . . o . . . o . . .
E |---------------------------------------------------------14------|
B |---------------------------------14----------------1514----------|
G |-----------------11------111211----------------------------------|
D |-11------111211--------------------------------------------------|
A |-----------------------------------------------------------------|
E |-----------------------------------------------------------------|

************************************

| .  Staccato
| > palm 

************************************
Suggest correction
comments
print report bad tab
1 comment total.
0 reply
mojomills87 10 Apr 02, 2017 01:28 AM

FUN!

guest
You may want to rate the tab now too:
select rating
Wanna post a correction for this tab? Suggest correction