Oops, an error
Loading. Please wait.

Lazytown - We Are Number One Bass

version 1
version 1

Whole song

22,006 views 135 this week
1 commentread comment
1 2 3 4 5
x 15
add to favorites
launch autoscroll
font size
0
reset
guitar tuner
Autoscroll
slow
fast
+/-
esc
set tempo
stop
Author
Difficulty
Tuning
novice
E A D G
[Bass Line]
G|----------------|----------------|----------------|----------------|
D|----------------|----------------|--------6-------|----5---2-------|
A|--------3-------|--------3-------|4---8-------8---|3-----------3---|
E|1---4-------4---|1---4-------4---|----------------|----------------|

[Melody]
G|---------------------------------------------------------------------------|
D|---------------------------------------------------------------------------|
A|---------------------------------------------------------------------------|
E|---------------------------------------------------------------------------|

G|---------------------------|------------------------------------------------|
D|--10p9h10p9h10p9h10--------|-----10-11------11--13--10h11p10h11p10----------|
A|8-------------------11-8---|8-11--------11----------------------------------|
E|---------------------------|------------------------------------------------|


************************************

| h  Hammer-on
| p  Pull-off

************************************
Suggest correction
comments
print report bad tab
1 comment total.
+2 reply
jofo1441 10 Nov 11, 2016 08:03 PM

dank memes man, also nice tab

guest
You may want to rate the tab now too:
select rating
Wanna post a correction for this tab? Suggest correction