Oops, an error
Loading. Please wait.

Lazytown - We Are Number One Bass Tab

version 1
version 1

Whole song

  • It has the bass line and melody of the song.
2,974 views 285 this week
1 commentread comment
1 2 3 4 5
x 4
add to favorites
launch autoscroll
font size
0
reset
guitar tuner
Autoscroll
slow
fast
+/-
esc
set tempo
stop
Help us to improve Ultimate-Guitar.com Take our survey!
×
Author
Difficulty
About this tab version
It has the bass line and melody of the song. Was this info helpful? Yes No
[Bass Line]
G|----------------|----------------|----------------|----------------|
D|----------------|----------------|--------6-------|----------------|
A|--------3-------|--------3-------|4---8-------8---|----5-----------|
E|1---4-------4---|1---4-------4---|----------------|3-------4---3---|

[Melody]
G|---------------------------------------------------------------------------|
D|---------------------------------------------------------------------------|
A|---------------------------------------------------------------------------|
E|---------------------------------------------------------------------------|

G|---------------------------|------------------------------------------------|
D|--10p9h10p9h10p9h10--------|-----10-11------11--12--10h11p10h11p10----------|
A|8-------------------11-8---|8-11--------11----------------------------------|
E|---------------------------|------------------------------------------------|


************************************

| h  Hammer-on
| p  Pull-off

************************************
Suggest correction
comments
print report bad tab
1 comment total.
+1 reply
jofo1441 10 Nov 12, 2016 01:03 AM

dank memes man, also nice tab

guest
You may want to rate the tab now too:
select rating
Wanna post a correction for this tab? Suggest correction