Oops, an error
Loading. Please wait.

Lazytown - We Are Number One Bass

version 2
version 2

Whole song

6,766 views 93 this week
3 commentsread comments
1 2 3 4 5
x 19
add to favorites
×
Save as Personal and add changes to this tab that will be seen only by you. Learn more ›
×
You can save this tab as Personal to edit and correct it or add notes. All changes will be seen only by you. Learn more »
save as personal
new!
launch autoscroll
font size
0
reset
guitar tuner
Autoscroll
slow
fast
+/-
esc
set tempo
stop
Author
Difficulty
Tuning
novice
E A D G
Robbie_Rotten - We Are Number One

So if you know any memes this is the song played and sung by clones of the villain of the show. This is seen 
here https://www.youtube.com/watch?v=PfYnvDL0Qcw. This is my first tab and was done by ear.

[Main Theme]
This is the part played on the Trumpet. You can either slow it down or play very fast.
G|----5--4-5-4-5-4-5-----|------5-6---6-8-5-6-5-6-5-6-|
D|-3------------------6--|--3-6-----6-----------------|
A|-----------------------|----------------------------|
E|-----------------------|----------------------------|

G|----5--4-5-4-5-4-5-4-1--|----1-5-6-1-8-6-5-6-5-6-5-|
D|-3----------------------|--3-----------------------|
A|------------------------|--------------------------|
E|------------------------|--------------------------|

There is also the actual main bass used in the background repeatedly. This is played as:
G|------------------------------------|
D|--------------------5-7-5-----5-3---|
A|---3-5-3----3-5-3--5--------5-----3-|
E|-3--------3-------------------------|

im sure the one other person who has wanted this song will be happy about this. I'm sure I have it mostly
right.
Suggest correction
comments
print report bad tab
3 comments total.
0 reply
loganhrussell1 43 Nov 22, 2016 12:06 PM, edited on November 26 2016, 02:40 am

the first part of each should be 5-4-5-4 etc...

fixed :)

0 reply
jbrew.com 10 Nov 26, 2016 01:10 PM

OwO what's this?

0 reply
10mcgida 95 Nov 27, 2016 08:56 AM

memes from the hacker known as 4chan jbrew.

guest
You may want to rate the tab now too:
select rating
Wanna post a correction for this tab? Suggest correction