Oops, an error
Loading. Please wait.

Magnum Pi Theme Tab

version 1
version 1

Whole song

Interactive

12,689 views 6 this week
no commentswrite comment
1 2 3 4 5
x 3
add to favorites
launch autoscroll
font size
0
reset
how to read this tab
guitar tuner
×
Best way to learn
"Magnum Pi Theme"
Autoscroll
slow
fast
+/-
esc
set tempo
stop
Author
Difficulty
  follow
novice
Magnum                                 
Rythm guitar+lead

     3            |----3----|                                         
     H.           Q    Q    Q       E.  S S  S S S S  S S S S  S S S  
e|------------------------------|-----------------------------------|
B|------------------------------|-----------------------------------|
G|------------------------------|-----------------------------------|
D|-------------------------0----|-----------------------------------|
A|--------------------2---------|--7---7-7p-5-5-5-7p-5-5-5-7p-5-5-5-|
E|---------------3--------------|-----------------------------------|

    E.  S S  S S S S  S S S S  S S S  
e|-----------------------------------|
B|-----------------------------------|
G|-----------------------------------|
D|-----------------------------------|
A|--7---7-7p-5-5-5-7p-5-5-5-7p-5-5-5-|
E|-----------------------------------|

                                                  |----3----|     
  E.  S S  S S S S  S S S S  S S S    E.  S E  E  Q    Q    Q     
e|-----------------------------------|-----------------------------|
B|-----------------------------------|-----------------------------|
G|-----------------------------------|-----------------------------|
D|-----------------------------------|------------------------0----|
A|--7---7-7p-5-5-5-7p-5-5-5-7p-5-5-5-|--7---7-7----------2---------|
E|-----------------------------------|--------------3--------------|

    E.  S S  S S S S  S S S S  S S S  
e|-----------------------------------|
B|-----------------------------------|
G|-----------------------------------|
D|-----------------------------------|
A|--7---7-7p-5-5-5-7p-5-5-5-7p-5-5-5-|
E|-----------------------------------|

    E.  S S  S S S S  S S S S  S S S  
e|-----------------------------------|
B|-----------------------------------|
G|-----------------------------------|
D|-----------------------------------|
A|--7---7-7p-5-5-5-7p-5-5-5-7p-5-5-5-|
E|-----------------------------------|

                                      |----3----|    |----3----|     
  E.  S S  S S S S  S S S S  S S S    Q    Q    Q    Q    Q    Q     
e|-----------------------------------|--------------------------------|
B|-----------------------------------|--------------------------------|
G|-----------------------------------|--------------------------------|
D|-----------------------------------|------------0--------------0----|
A|--7---7-7p-5-5-5-7p-5-5-5-7p-5-5-5-|-------2---------2----3---------|
E|-----------------------------------|--3-----------------------------|
 |
 |                                                   |-----3----|     
 |  W                   W                   H        Q    Q     Q     
e|-------------------|-------------------|-----------7----8----10----|
B|-------------------|-------------------|---------------------------|
G|-------------------|-------------------|---------------------------|
D|-------------------|-------------------|---------------------------|
A|-------------------|-------------------|---------------------------|
E|-------------------|-------------------|---------------------------|

   Q    Q    Q    E  E     E  E  Q    H         
e|-----------------------|----------------------|
B|-----------------------|----------------------|
G|-----------------------|----------------------|
D|-----------------------|----------------------|
A|--------------------2--|--L-------------------|
E|--3--------------------|----------------------|
|
 |   W                    Q     E  E   E   Q.       
e|--10~----------------|-------10--7--12--10~------|
B|---------------------|---------------------------|
G|---------------------|---------------------------|
D|---------------------|---------------------------|
A|---------------------|---------------------------|
E|---------------------|---------------------------|

   Q    Q    Q    E  E     E  E  Q    E  E  E  E   
e|-----------------------|-------------------------|
B|-----------------------|-------------------------|
G|-----------------------|-------------------------|
D|-----------------------|-------------------------|
A|--3-----------------0--|-----0--2----3--5--L-----|
E|-----------------------|----------------------3--|
|
 |  W                    H.           E   E      W                  
e|--3~----------------|------------------10~--|--------------------|
B|--------------------|-----------------------|--------------------|
G|--------------------|-----------------------|--------------------|
D|--------------------|-----------------------|--------------------|
A|--------------------|-----------------------|--------------------|
E|--------------------|-----------------------|--------------------|

   E  E  Q    Q    E  E     E  E  Q    Q    E  E   
e|------------------------|------------------------|
B|------------------------|------------------------|
G|------------------------|------------------------|
D|------------------------|------------------------|
A|---------------------2--|--L------------------3--|
E|--L---------------------|------------------------|
 |
 |  Q    E  E   E   E   E  E      W                 
e|--L~----------------|-------7--8--10--14--15------|
B|--------------------|-------------------------8~--|
G|--------------------|-----------------------------|
D|--------------------|-----------------------------|
A|--------------------|-----------------------------|
E|--------------------|-----------------------------|

   E  E  Q    Q    E  E     W                   H        Q    E   E    
e|------------------------|-------------------|------------------------|
B|------------------------|-------------------|-------------------13b--|
G|------------------------|-------------------|------------------------|
D|------------------------|-------------------|------------------------|
A|--L------------------5--|--L----------------|------------------------|
E|------------------------|-------------------|------------------------|
|
e|------------------------|--10--7--12--10~---L--|--10---10-8~----6--10~-|
B|------------------------|----------------------------------------------|
G|------------------------|----------------------------------------------|
D|------------------------|----------------------------------------------|
A|------------------------|----------------------------------------------|
E|------------------------|----------------------------------------------|

   Q     E   E   E   E   E   E      H.           E   E     
e|--------------------------------|------------------13br--|
B|--L----13--11--13------11-------|------------------------|
G|-------------------10------12~--|--L---------------------|
D|--------------------------------|------------------------|
A|--------------------------------|------------------------|
E|--------------------------------|------------------------|
|
 |  W                    E.   S  Q      E   Q     E   
e|-------------------|--15---15-13~----11--15~-------|
B|-------------------|-------------------------------|
G|-------------------|-------------------------------|
D|-------------------|-------------------------------|
A|-------------------|-------------------------------|
E|-------------------|-------------------------------|

   E  E   E   E   E    E     Q        H.           E   E     
e|--L--L--13--11--13--(13)b---------|------------------------|
B|---------------------------13~----|--L---------------13br--|
G|----------------------------------|------------------------|
D|----------------------------------|------------------------|
A|----------------------------------|------------------------|
E|----------------------------------|------------------------|
|
 |  W                    E.   S Q     E   Q     E     W                 
e|-------------------|--10---10-8~----6--10~-------|-------------------|
B|-------------------|-----------------------------|-------------------|
G|-------------------|-----------------------------|-------------------|
D|-------------------|-----------------------------|-------------------|
A|-------------------|-----------------------------|-------------------|
E|-------------------|-----------------------------|-------------------|

                                  |--3-|       |----3----|     
  E  S  S  E   E   E    Q.        Q    E  Q    Q    Q    Q     
e|-------------------------------|------------------------------|
B|--L--L-11-13--11--13b----------|------------------------------|
G|-----------------------12------|------------------------------|
D|-------------------------------|-------------------------0----|
A|-------------------------------|--1----0--L---------2---------|
E|-------------------------------|---------------3--------------|

    E.  S S  S S S S  S S S S  S S S  
e|-----------------------------------|
B|-----------------------------------|
G|-----------------------------------|
D|-----------------------------------|
A|--7---7-7p-5-5-5-7p-5-5-5-7p-5-5-5-|
E|-----------------------------------|

    E.  S S  S S S S  S S S S  S S S  
e|-----------------------------------|
B|-----------------------------------|
G|-----------------------------------|
D|-----------------------------------|
A|--7---7-7p-5-5-5-7p-5-5-5-7p-5-5-5-|
E|-----------------------------------|

                                                  |----3----|     
  E.  S S  S S S S  S S S S  S S S    E.  S E  E  Q    Q    Q     
e|-----------------------------------|-----------------------------|
B|-----------------------------------|-----------------------------|
G|-----------------------------------|-----------------------------|
D|-----------------------------------|------------------------0----|
A|--7---7-7p-5-5-5-7p-5-5-5-7p-5-5-5-|--7---7-7----------2---------|
E|-----------------------------------|--------------3--------------|

    E.  S S  S S S S  S S S S  S S S  
e|-----------------------------------|
B|-----------------------------------|
G|-----------------------------------|
D|-----------------------------------|
A|--7---7-7p-5-5-5-7p-5-5-5-7p-5-5-5-|
E|-----------------------------------|

    E.  S S  S S S S  S S S S  S S S  
e|-----------------------------------|
B|-----------------------------------|
G|-----------------------------------|
D|-----------------------------------|
A|--7---7-7p-5-5-5-7p-5-5-5-7p-5-5-5-|
E|-----------------------------------|

                                      |----3----|    |----3----|     
  E.  S S  S S S S  S S S S  S S S    Q    Q    Q    Q    Q    Q     
e|-----------------------------------|--------------------------------|
B|-----------------------------------|--------------------------------|
G|-----------------------------------|--------------------------------|
D|-----------------------------------|------------0--------------0----|
A|--7---7-7p-5-5-5-7p-5-5-5-7p-5-5-5-|-------2---------2----3---------|
E|-----------------------------------|--3-----------------------------|

    Q    H.             
e|--------------------||
B|--------------------||
G|--------------------||
D|--2-----------------||
A|--------------------||
E|--------------------||

************************************

| p   Pull-off
| ~   Vibrato
| b   Bend
| br  Bend release

************************************
Suggest correction
Give kudos to tab author, rate the tab!
1 2 3 4 5
comments
print report bad tab
guest
You may want to rate the tab now too:
select rating
Wanna post a correction for this tab? Suggest correction