Oops, an error
Loading. Please wait.

Mash Theme - Suicide Is Painless Tab

version 5
version 5

Whole song

Interactive

589 views 15 this week
no commentswrite comment
1 2 3 4 5
3 more votes to show rating
add to favorites
launch autoscroll
font size
0
reset
how to read this tab
guitar tuner
×
Best way to learn
"Mash Theme - Suicide Is Painless"
Autoscroll
slow
fast
+/-
esc
set tempo
stop
Author
Difficulty
#-----------------------------PLEASE NOTE-------------------------------------#
#This OLGA file is the author's own work and represents their interpretation  #
#of the song. You may only use this file for private study, scholarship, or   #
#research. Remember to view this file in Courier, or some other monospaced    #
#font. See http://www.olga.net/faq/ for more information.                     #
#-----------------------------------------------------------------------------#

Date: Sat, 20 Jan 2001 15:55:49 -0500
From: Dugxch74@aol.com
Subject: m/misc_television/mash.tab


January 20 2001
Dougie Fresh 
        I dont actually watch but Ive been told its REALLY good 

M*A*S*H*
Capo 2, tabs relative to there. Chord names as if open.

Bm                             G              G6 (open)
|----------------------------|---3--1--0--1--0--1--0------|
|--------1--0---------1--0---|------------------------3---|
|------2------------2--------|----------------------------|
|----2------------2----------|----------------------------|
|--0------------0------------|----------------------------|
|----------------------------|----------------------------| 

D             D6 (bar 7fr)      Bm          Bm9 (bar 2fr)
|--0-----0-----0----------|---0------------------------|
|-----3-----3-----3--1----|------3--1--3--1--3--1--0---|
|-------------------------|----------------------------|
|-------------------------|----------------------------|
|-------------------------|----------------------------|
|-------------------------|----------------------------|    
D                           (D)
|----------------------0--|-----(0)--------------------|
|----1--0--1--0--1--3-----|----------------------------|
|-------------------------|----------------------------|
|-------------------------|----------------------------|
|-------------------------|----------------------------|
|-------------------------|----------------------------|    

G (bar 7fr)                     G (bar 7fr)
|--3---5--3--5--3--5--2---|--5--3--5--3--5--3----------|
|-------------------------|----------------------------|
|-------------------------|----------------------------|
|-------------------------|----------------------------|    
|-------------------------|----------------------------|
|-------------------------|----------------------------|
D        G       D          Bm
|--0--3---5--8---10--8----|----5----3----5-------------|
|-------------------------|----------------------------|
|-------------------------|----------------------------|
|-------------------------|----------------------------|    
|-------------------------|----------------------------|
|-------------------------|----------------------------|

G              G6 (open)        D          D6 (bar 7fr)    
|---3--1--0--1--0--1--0------|--0-----0-----0----------|
|------------------------3---|-----3-----3-----3--1----|
|----------------------------|-------------------------|
|----------------------------|-------------------------|
|----------------------------|-------------------------|
|----------------------------|-------------------------|

Bm          Bm9 (bar 2fr)        D                 (D)
|---0------------------------|----------------------0--|
|------3-1---3-1---3-1--0----|----1--0--1--0--1--3-----|
|----------------------------|-------------------------|
|----------------------------|-------------------------|
|----------------------------|-------------------------|
|----------------------------|-------------------------|

G (7bar fr)                  G (bar 7fr)
|--2---5--3--5--3--5--3---|--5--3--5--3--5--3----------|
|-------------------------|----------------------------|
|-------------------------|----------------------------|
|-------------------------|----------------------------|    
|-------------------------|----------------------------|
|-------------------------|----------------------------|

D        G       D          Bm
|--0--3---5--8---10--8----|----5----3----5-------------|
|-------------------------|----------------------------|
|-------------------------|----------------------------|
|-------------------------|----------------------------|    
|-------------------------|----------------------------|
|-------------------------|----------------------------|
D        G       D          Bm
|--0----3-----5----8----10|---8-----5----3----5--------|
|-------------------------|-------------------5--------|
|-------------------------|-------------------5--------|
|-------------------------|-------------------5--------|    
|-------------------------|----------------------------|
|-------------------------|----------------------------|


A Fresh tab by Dougie Fresh

Note from Devilsbane: This is Dougie Fresh's tab (Version 1 tab on UG, 4 stars) but I found it too hard to 
play with no capo. The Bm where you have the 2nd fret barred and then need to play a note on the 3 was too 
difficult for me. So I rewrote it with a capo on 2 but I left all the notes the same because some of them 
probably wouldn't translate perfectly. I also moved some of the higher notes from the B string up to the E 
string.
Suggest correction
Give kudos to tab author, rate the tab!
1 2 3 4 5
comments
print report bad tab
guest
You may want to rate the tab now too:
select rating
Wanna post a correction for this tab? Suggest correction