Oops, an error
Loading. Please wait.

Match Of The Day Theme tab

version 1
version 1

Whole song

Interactive

23,323 views 18 this week
4 commentsread comments
1 2 3 4 5
x 19
add to favorites
×
Save as Personal and add changes to this tab that will be seen only by you. Learn more ›
×
You can save this tab as Personal to edit and correct it or add notes. All changes will be seen only by you. Learn more »
launch autoscroll
font size
0
reset
how to read this tab
guitar tuner
edit
Autoscroll
slow
fast
+/-
esc
set tempo
stop
This is my version of the match of the day theme. you all know it...

by adam gilbey from middlesbrough england

E------------------------------------------------------------|
B------0---3--0-0-0---0-0---1---3----0------0--1-------------|
G----0----------------------------------2------------------2-|
D--0-----------------------------------------------0---4-----|
A------------------------------------------------------------|
E------------------------------------------------------------|

E------------------------------------------------------------|
B-1--------------0-1---------0------0--3--0--0--0--0--0---1--|
G----2-2-2---2-2------2-0-2-------0--------------------------|
D-------------------------------0----------------------------|
A------------------------------------------------------------|
E------------------------------------------------------------|

E---------------0---0-2---3-3-2-0-3-----0--------------------|
B--3---0--1--3-----------------------3-3----3--1--0----------|
G-----------------------------------------------------2---0--|
D------------------------------------------------------------|
A------------------------------------------------------------|
E------------------------------------------------------------|

any questions, email me at gilbey_69@hotmail.co.uk

feel free to comment
Suggest correction
Creating personal tab
Creating personal tab
You can edit any tab online and save it as your Personal.

You can edit, replace or remove any tab part or add personal notes – all changes will be seen only by you.

Personal tabs can be accessed anytime from any device, even offline.
Learn more »
comments
print report bad tab
4 comments total. Showing first comments.
0 reply
Woolly 81 May 08, 2007 11:30 AM

awesome theme, cant believe ur the only one to tab it, but should be:

E------------------------------------------------------------|
B------0---3--0-0-0---0-0---1---3----0------0--1-------------|
G----0----------------------------------2------------------2-|
D--0-----------------------------------------------0---4-----|
A------------------------------------------------------------|
E------------------------------------------------------------|

0 reply
joeld 10 Jun 23, 2007 12:22 PM

brilliant but it sounds like you missed a bit at the end

0 reply
Touch Too Much 10 Aug 18, 2007 09:25 AM

excellent!!!:D

guest
You may want to rate the tab now too:
select rating
Wanna post a correction for this tab? Suggest correction