Oops, an error
Loading. Please wait.

Mcdonalds Theme tab

version 2
version 2

Whole song

5,309 views 6 this week
3 commentsread comments
1 2 3 4 5
x 6
add to favorites
×
Save as Personal and add changes to this tab that will be seen only by you. Learn more ›
×
You can save this tab as Personal to edit and correct it or add notes. All changes will be seen only by you. Learn more »
launch autoscroll
font size
0
reset
how to read this tab
guitar tuner
edit
Autoscroll
slow
fast
+/-
esc
set tempo
stop
Author
McDonald's Theme Tab(ver 2)
Tabbed by bassmaster_07

e---------------------------------------------------------------------------|
B---------------------------------------------------------------------------|
G--------------4---2-----2--------------------------------------------------|
D--1---2---4-----------------2-----0---0------------------------------------|
A---------------------------------------------------------------------------|
E---------------------------------------------------------------------------|


  Very easy to play!
  Enjoy

            
            
Suggest correction
Creating personal tab
Creating personal tab
You can edit any tab online and save it as your Personal.

You can edit, replace or remove any tab part or add personal notes – all changes will be seen only by you.

Personal tabs can be accessed anytime from any device, even offline.
Learn more »
comments
print report bad tab
3 comments total.
-2 reply
Witchhazel 99 Jun 16, 2006 04:21 PM

It's Ok i guess but a little incorrect but good job bassmaster!

0 reply
Witchhazel 99 Jun 17, 2006 07:31 AM

ok job

+2 reply
Naik345 10 Dec 17, 2007 08:39 AM

kwl can be played like this
E--------4-2----------|
B-0-2-4------4-2-0-0--|
G---------------------|

guest
You may want to rate the tab now too:
select rating
Wanna post a correction for this tab? Suggest correction