Oops, an error
Loading. Please wait.

Merlin - Theme Tab

211 views 18 this week
no commentswrite comment
1 2 3 4 5
2 more votes to show rating
add to favorites
launch autoscroll
font size
0
reset
how to read this tab
guitar tuner
×
Best way to learn
"Merlin - Theme"
Autoscroll
slow
fast
+/-
esc
set tempo
stop
Author
Difficulty
e|-13-8---------8----|-8-9-11-13-11-9-|-16-15-13~--8-9-11-13-11-16-|
B|------11-9-11------|----------------|----------------------------|
G|----------------10-|----------------|----------------------------|
D|-------------------|----------------|----------------------------|
A|-------------------|----------------|----------------------------|
E|-------------------|----------------|----------------------------|

e|-8-9-8-----------|------8-9-11-----------------|
B|-------11-9-9-11-|-9-11--------13-11-9-9-11----|
G|-----------------|-----------------------------|
D|-----------------|-----------------------------|
A|-----------------|-----------------------------|
E|-----------------|-----------------------------|

e|-8-9-11-12-14-16-12-|-12-11-14-----------------|
B|--------------------|----------12--12-12-14-14-|
G|--------------------|--------------------------|
D|--------------------|--------------------------|
A|--------------------|--------------------------|
E|--------------------|--------------------------|


***********************************
| ~   vibrato 
***********************************
Suggest correction
Give kudos to tab author, rate the tab!
1 2 3 4 5
comments
print report bad tab
guest
You may want to rate the tab now too:
select rating
Wanna post a correction for this tab? Suggest correction