Oops, an error
Loading. Please wait.

Munsters Theme Tab

42,409 views 84 this week
3 commentsread comments
1 2 3 4 5
accurate
x 7
add to favorites
launch autoscroll
font size
0
reset
how to read this tab
guitar tuner
Autoscroll
slow
fast
+/-
esc
set tempo
stop
Help us to improve Ultimate-Guitar.com Take our survey!
×
Contributor
Difficulty
novice
The Munsters theme tune- as played by me.
Standard tuning

E----------------------------------------------------------------------|
B--------------------------------5--1-0----0---------------------------|
G----------------------------4-5--------2----2-0-----------------------|
D------------------------5------------------------4-2-0----------------|
A----1-2-----1-2------/7---7-------------------------------1-2----1-2--|
E-0-------0----------------------------------------------0------0------|


E-----------------------------------------|
B------------5--1-0-----------------------|
G--------4-5--------2--0-2-4--------------|
D----5------------------------------0-1-2-|
A-/7---7----------------------2-2-2-------|
E-----------------------------------------|


E-0-0-0---------------------------------|
B-3-3-3-1-0-1---0-0---------------------|
G-------------2---0--2-2-2-0------------|
D----------------------------4-5-2-4-1--|
A---------------------------------------|
E---------------------------------------|


E-----------------------------------------|
B------------5--1-0-----------------------|
G--------4-5--------2--0-2-4--------------|
D----5------------------------------0-1-2-|
A-/7---7----------------------2-2-2-------|
E-----------------------------------------|
comments
print report bad tab
3 comments total.
0 reply
huggies14 43 wrote on May 21 2013, 03:23 pm

The Munsters theme tune- as played by me.
Standard tuning

E----------------------------------------------------------------------|
B--------------------------------5--1-0----0---------------------------|
G----------------------------4-5--------2----2-0-----------------------|
D------------------------5------------------------4-2-0----------------|
A----1-2-----1-2------/7---7-------------------------------1-2----1-2--|
E-0-------0----------------------------------------------0------0------|

E-----------------------------------------|
B------------5--1-0-----------------------|
G--------4-5--------2--0-2-4--------------|
D----5------------------------------0-1-2-|
A-/7---7----------------------2-2-2-------|
E-----------------------------------------|

E-0-0-0---------------------------------|
B-3-3-3-1-0-1---0-0---------------------|
G-------------2---0--2-2-2-0------------|
D----------------------------4-5-2-4-1--|
A---------------------------------------|
E---------------------------------------|

E-----------------------------------------|
B------------5--1-0-----------------------|
G--------4-5--------2--0-2-4--------------|
D----5------------------------------0-1-2-|
A-/7---7----------------------2-2-2-------|
E-----------------------------------------|

0 reply
lewdok 11 wrote on July 21 2013, 02:27 am

sounds pretty correct to me...fun to play and easy

0 reply
PiercedBand 2,914 wrote on July 24 2015, 10:51 pm

Awesome, love this show! The guitar sounds like the ones on Billion Dollar Babies

I want to post or [tab]
guest
You may want to rate the tab now too:
select rating
Please do not post tabs as comments. Select "correction" instead!