Oops, an error
Loading. Please wait.

Red Dwarf Theme ukulele

version 1
version 1

Whole song

Interactive

767 views 3 this week
2 commentsread comments
1 2 3 4 5
1 last vote to show rating
add to favorites
×
Save as Personal and add changes to this tab that will be seen only by you. Learn more ›
×
You can save this tab as Personal to edit and correct it or add notes. All changes will be seen only by you. Learn more »
launch autoscroll
font size
0
reset
transpose
0
reset
simplify chords
display chords
guitar tuner
edit
Autoscroll
slow
fast
+/-
esc
set tempo
stop
Difficulty
Strumming
There is no strumming pattern for this song yet. and get +5 IQ
I listened to this for Goddam hours trying to get these chords. And i thought it would 
simpler than doing a full guitar tab...

INTRO
 D
e------------|------------|
b------------|------------|
g------------|------------|
D-----------0|-----------0|
A-----0-2-3--|-----0-2-3--|
E---3--------|---3--------|

VERSE 1

    G       Bm
Its cold outside,
        C
There's no kind of atmosphere,
    G   Am
I'm all alone,
Am      E
More or less.


PRE-CHORUS 1

C
Let me fly,
A7/C#
Far away from here,


CHORUS

G    G7   Esus4 E
Fun, fun, fun,
       Am   C    D
In the sun, sun, sun.


VERSE 2

   G       Am
I want to lie,
C
Shipwrecked and comotoase,
G        Am
Drinking fresh,
Am    E
Mango juice,


PRE-CHORUS 2

C
Goldfish shoals,
A7/C#
Nibbling at my toes,


CHORUS

G    G7   Esus4 E
Fun, fun, fun,
       Am   Cm   D
In the sun, sun, sun,
G    G7   Esus4 E
Fun, fun, fun,
       Am   Cm   D
In the sun, sun, sun.


OUTRO

e------------|------------|------------|------------|
b------------|------------|------------|------------|
g------------|------------|------------|------------|
D-----------0|-----------0|-----------0|------------|
A-----0-2-3--|-----0-2-3--|-----0-2-3--|-3----------|
E---3--------|---3--------|---3--------|------------|
Suggest correction
Creating personal tab
Creating personal tab
You can edit any tab online and save it as your Personal.

You can edit, replace or remove any tab part or add personal notes – all changes will be seen only by you.

Personal tabs can be accessed anytime from any device, even offline.
Learn more »
Give kudos to tab author, rate the tab!
1 2 3 4 5
comments
print report bad tab
2 comments total.
0 reply
jcat55 31 Feb 07, 2015 12:04 AM

ukulele version of tab (an octave up)
INTRO

A-----0-2-3-5|-----0-2-3-5|
E------------|------------|
C------------|------------|
G---0--------|---0--------|

OUTRO
A-----0-2-3-5|-----0-2-3-5|-----0-2-3-5|-3----------|
E------------|------------|------------|------------|
C------------|------------|------------|------------|
G---0--------|---0--------|---0--------|------------|

0 reply
robbel 10 May 30, 2016 07:26 PM

Some of the chords are blatantly wrong. They don't sound *bad* with the melody, but they aren't correct, either. It also lacks a key change where one should be.

guest
Wanna post a correction for this tab? Suggest correction