Oops, an error
Loading. Please wait.

Rugrats Theme Tab

version 1
version 1

Interactive

31,574 views 27 this week
2 commentsread comments
1 2 3 4 5
x 23
add to favorites
launch autoscroll
font size
0
reset
how to read this tab
guitar tuner
Autoscroll
slow
fast
+/-
esc
set tempo
stop
This is my tab of the rugrats theme song from the tv show!
the song goes in this order :riff 1....riff 2...riff 1...riff 3

[RIFF 1]                            
e|------0-2-4-5---4-0-2-0--|          
B|--2-3-------------------3|          
G|-------------------------|          
D|-------------------------|          
A|-------------------------|         
E|-------------------------|          

[RIFF 2]
e|--------0-2-4-5--7-4-5-4-2-|
B|----2-3--------------------|
G|---------------------------|
D|---------------------------|
A|---------------------------|
E|---------------------------|

[RIFF 3]
e|----0-2-4-5-7-5-4-2-0--------|
B|2-3--------------------3---2-|
G|-----------------------------|
D|-----------------------------|
A|-----------------------------|
E|-----------------------------|
Suggest correction
comments
print report bad tab
2 comments total.
+1 reply
ZONE4ever 10 Jan 24, 2007 11:09 AM

there is something missing,,,
e |------0-2-4-5-4--4-0-2-0--
B |--2-3--------------------3
G |--------------------------
D |--------------------------
A |--------------------------
E |--------------------------

0 reply
ray240315 10 Feb 14, 2008 04:20 PM

ZONE4ever is right

guest
Wanna post a correction for this tab? Suggest correction