Oops, an error
Loading. Please wait.

Sesame Street Theme tab

version 7
version 7

Whole song

1,891 views 1 this week
no commentswrite comment
1 2 3 4 5
3 more votes to show rating
add to favorites
×
Save as Personal and add changes to this tab that will be seen only by you. Learn more ›
×
You can save this tab as Personal to edit and correct it or add notes. All changes will be seen only by you. Learn more »
launch autoscroll
font size
0
reset
how to read this tab
guitar tuner
edit
Autoscroll
slow
fast
+/-
esc
set tempo
stop
Author
Difficulty
SESAME STREET THEME SONG (Inspired by Joshua Radin's version although as you'll 
see, there is no resemblance between the two)

It's a very basic, beginner level tab.  Feel free to distribute or reproduce it; 
all I ask is to let people know where you got 'em from, i.e. me! ;)

Tabulated by: Lord Nefarius (see http://www.youtube.com/watch?v=U4MXVy99USc for source)


INTRO

e-------5------------5-----------2------------2--------------0------------0-----------------|
B-----3---3--------3---3-------3---3--------3---3----------3---3--------3---3----------0h3--|
G---0-------0----0-------0---0-------0----0-------0------0-------0----0-------0-------------|
D-------------------------------------------------------------------------------------------|
A-0-----------0------------0-----------0-------------0--------------0-------------0----0----|
E-------------------------------------------------------------------------------------------|


Sun..ny.day..............................................................air..is...sweet

e-5---2---------0h2-----5---2--------------0------------5---2--------0h2---4----5---7------|
B-3------3----3---------3------3--------3-----3---------3------3-3--3------3----3---0------| 
G------------------------------------0-----------0-----------------------------------------|
D------------------------------------------------------------------------------------------|
A-0--------0---------0--0---------0-----------------0---0-----------0------0----0---0------|
E------------------------------------------------------------------------------------------|


                                     ...ssmestrt..

e-5--7--8--7--5--2--0----0---2--3--2--0--5-5-5----------5-------------|
B-0--------------3--------------------3--3-3-3-------3-----3----------|
G-------------------------------------------------0-----------0-------|
D---------------------------------------------------------------------|
A-0--------------0--------------------0--0-0-0-------------------0----|
E---------------------------------------------------------------------|


e-0-2--3--2--0--5-5-5--|
B-3----------3--3-3-3--|
G----------------------|
D----------------------|
A-0----------0--0-0-0--|
E----------------------|


REPEAT INTRO

            
            
Suggest correction
Creating personal tab
Creating personal tab
You can edit any tab online and save it as your Personal.

You can edit, replace or remove any tab part or add personal notes – all changes will be seen only by you.

Personal tabs can be accessed anytime from any device, even offline.
Learn more »
Give kudos to tab author, rate the tab!
1 2 3 4 5
comments
print report bad tab
guest
You may want to rate the tab now too:
select rating
Wanna post a correction for this tab? Suggest correction