Oops, an error
Loading. Please wait.

Shinsuke Nakamura - The Rising Sun Tab

283 views 39 this week
no commentswrite comment
1 2 3 4 5
x 3
add to favorites
launch autoscroll
font size
0
reset
how to read this tab
guitar tuner
Autoscroll
slow
fast
+/-
esc
set tempo
stop
Help us to improve Ultimate-Guitar.com Take our survey!
×
Author
Difficulty
intermediate
About this tab version
This version is based on the violin that appears in the studio version, transcribed for guitar. Was this info helpful? Yes No
WWE (CFO$) - The Rising Sun {Shinsuke Nakamura)

[Intro] [0:00]
e|----------------|------------|----------------|-------------|
B|----------------|------------|----------------|-------------|
G|----------------|------------|----------------|-------------|
D|----------------|------------|----------------|-------------|
A|--0------0------|-0--------2-|--0------0------|-----5--3--2-|
E|----------------|-------3----|----------------|-3-----------| x1

[Riff 1] [0:06]
e|------------------|----------------|-------------|--------------|
B|---------------15-|----------------|-------------|--------------|
G|--12h15p12--12----|-12-12-12h15p12-|-12-12-12-12-|-12-----12-14-|
D|------------------|----------------|-------------|-----15-------|
A|------------------|----------------|-------------|--------------|
E|------------------|----------------|-------------|--------------|
 |                                                                |
e|------------------|----------------|-------------|--------------|
B|---------------15-|----------------|-------------|--------------|
G|--12h15p12--12----|-12-12-12h15p12-|-12-12-12-12-|-12-----14----|
D|------------------|----------------|-------------|-----15----15-|
A|------------------|----------------|-------------|--------------|
E|------------------|----------------|-------------|--------------| x2

e|---------------------------------------------------------------------------|
B|---------------------------------------------------------------------------|
G|---------------------------------------------------------------------------|
D|--19/////////////////////////////////////////////////----------------------|
A|---------------------------------------------------------------------------|
E|---------------------------------------------------------------------------|


[Main Riff] [0:21]
e|----------------|------------------|--------------------|---------------------|
B|------10--8-----|------------------|--------------------|---------------------|
G|-------------10-|-9~--7~---5-7-9-7-|--------------------|---7/9p7-------10~-9~|
D|--7-------------|------------------|-7~-7~-7~--7h9p7\5~-|-5-------7--7--------|
A|----------------|------------------|--------------------|---------------------|
E|----------------|------------------|--------------------|---------------------| x2


[Violin interlude] [0:45]
e|----------------|------------|----------------|-------------|
B|----------------|------------|----------------|-------------|
G|----------------|------------|----------------|-----7-------|
D|-7-------7------|-7--------9-|--7------7------|--------10-9-|
A|----------------|-------10---|----------------|-10----------|
E|----------------|------------|----------------|-------------| x3
  PM----------------------------------------------------------


************************************

| h   Hammer-on
| p   Pull-off
| /   Slide up
| \   Slide down
| ~   Vibrato

************************************
Suggest correction
Give kudos to tab author, rate the tab!
1 2 3 4 5
comments
print report bad tab
guest
You may want to rate the tab now too:
select rating
Wanna post a correction for this tab? Suggest correction