Oops, an error
Loading. Please wait.

The Joy Of Painting With Bob Ross - Theme Song Tab

502 views 63 this week
no commentswrite comment
1 2 3 4 5
3 more votes to show rating
add to favorites
launch autoscroll
font size
0
reset
how to read this tab
guitar tuner
Autoscroll
slow
fast
+/-
esc
set tempo
stop
Help us to improve Ultimate-Guitar.com Take our survey!
×
Author
Difficulty
intermediate
e|10----8--------8--------------------------------|10-8-----10----8-----8--------------------------|
B|---------8-----------11-------------------------|---------------------------11----------11-------|
G|------------------------------------------------|---------------------------------10-------------|
D|------------------------------------------------|------------------------------------------------|
A|------------------------------------------------|------------------------------------------------|
E|------------------------------------------------|------------------------------------------------|

e|10----8--------8--------------------------------|------------x-----------x-----x-----------x-----|
B|---------8-----------------------11----------9--|------------x-----------x-----x-----------x-----|
G|---------------------10-------------8-----------|7-----------x-----------x-----x-----------x-----|
D|------------------------------------------------|------------x-----------x-----x-----------x-----|
A|------------------------------------------------|------------x-----------x-----x-----------x-----|
E|------------------------------------------------|------------x-----------x-----x-----------x-----|

e|10-8-----10----8-----8--------------------------|10----8--------8--------------------------------|
B|---------------------------11-------------------|---------8-----------------------11-------------|
G|---------------------------------10-------------|---------------------10-------------8-----------|
D|------------------------------------------------|------------------------------------------------|
A|------------------------------------------------|------------------------------------------------|
E|------------------------------------------------|------------------------------------------------|

e|10----8--------8--------------------------------|------------------------------3-----------------|
B|---------8-----------------------11----------9--|8-----------------------3-----------------------|
G|---------------------10-------------8-----------|------------------4-----------------------------|
D|------------------------------------------------|------------5-----------------------------------|
A|------------------------------------------------|------------------------------------------------|
E|------------------------------------------------|------------------------------------------------|



************************************

| x  Dead note 

************************************
Suggest correction
Give kudos to tab author, rate the tab!
1 2 3 4 5
comments
print report bad tab
guest
You may want to rate the tab now too:
select rating
Wanna post a correction for this tab? Suggest correction