Oops, an error
Loading. Please wait.

The Walking Dead Theme Bass Tab

version 2
version 2

Whole song

13 views 3 this week
no commentswrite comment
1 2 3 4 5
2 more votes to show rating
add to favorites
launch autoscroll
font size
0
reset
guitar tuner
Autoscroll
slow
fast
+/-
esc
set tempo
stop
Help us to improve Ultimate-Guitar.com Take our survey!
×
Author
Difficulty
advanced
The Walking Dead Theme Song

[Intro]

G|---------14-15-14----------14-15-14----------14-15---------|
D|-----------------------------------------------------------|
A|------17----------17----17----------17----17---------------| x8
E|---15----------------15----------------15------------------|

G|---------10-11-10----------10-11-10----------10-11---------|
D|-----------------------------------------------------------|
A|------13----------13----13----------13----13---------------| x2
E|---11----------------11----------------11------------------|

G|--------7-8-7---------7-8-7---------7-8--------------------|
D|-----------------------------------------------------------|
A|-----10-------10---10-------10---10------------------------| x2
E|---8-------------8-------------8---------------------------|

G|---------14-15-14----------14-15-14----------14-15---------|
D|-----------------------------------------------------------|
A|------17----------17----17----------17----17---------------| x4
E|---15----------------15----------------15------------------|

G|---------14-15-14----------14-15-14------------------------|
D|-----------------------------------------------------------|
A|------17----------17----17----------17---------------------| 
E|---15----------------15----------------15------------------|
Suggest correction
Give kudos to tab author, rate the tab!
1 2 3 4 5
comments
print report bad tab
guest
You may want to rate the tab now too:
select rating
Wanna post a correction for this tab? Suggest correction