Oops, an error
Loading. Please wait.

Thomas And Friends - Original Theme Tab

43 views 3 this week
no commentswrite comment
1 2 3 4 5
3 more votes to show rating
add to favorites
launch autoscroll
font size
0
reset
how to read this tab
guitar tuner
Autoscroll
slow
fast
+/-
esc
set tempo
stop
Help us to improve Ultimate-Guitar.com Take our survey!
×
Author
Difficulty
intermediate
e|-------------------0-|------------------------|---------------------------------|
B|-------0--1-(1)-3----|----4-----4-----4-----4-|-6-----6--------3-----3----------|
G|-0--2----------------|----5-----5-----5-----5-|-7-----7--4-----4-----4----------|
D|-------0--2----------|-6-----------6----------|-7-----7--5--5-----------6/7-----|
A|-3-----------3-----3-|-------6-----------6----|----8--------------5-------------|
E|---------------------|------------------------|---------------------------------|

e|--------------------------------------------------------------------------------|
B|-6--6------------3---------------3-----3-----3-------------4-----4-----4--------|
G|-7--7------------4---------------4-----4-----4-------------5-----5-----5--------|
D|-------7--5-(5)-----4h5-4h5-4h5-----5-----5-----4h5-4h5/6-----6-----6-----------|
A|-8--8-------------------------------5-------------------------6-----------------|
E|--------------------------------------------------------------------------------|

e|-----------------------------------------|--------------------------------1-(1)-|
B|---------------------------------4-----4-|--------------------------2--2--------|
G|----------0----3---------0-------5-----5-|-------------------3--3---------------|
D|----3--4-------1----3----1----6----------|----6--5--4-----3---------------------|
A|-6--------1---------1---------6-----5----|-------------1-----1------1--------1--|
E|-----------------------------------------|-4------------------------------------|

e|-------------------------|------------------------|----------------------4------|
B|-------------------4-(4)-|-------------------2--2-|-1----1--(1)----------4------|
G|-------------5--5--------|-------------3--3-------|--------------3--------------|
D|-------6--6--------------|-------3--3--3--------3-|-----------------6----6------|
A|----6--6-----6--------6--|-1--4-------------------|-3--------3------6-----------|
E|-4-----------------------|------------------------|-----------------------------|



************************************

| (n) Ghost note
| h   Hammer-on
| /   Slide up

************************************
Suggest correction
Give kudos to tab author, rate the tab!
1 2 3 4 5
comments
print report bad tab
guest
You may want to rate the tab now too:
select rating
Wanna post a correction for this tab? Suggest correction