Oops, an error
Loading. Please wait.

Volkswagen Commercial tab

version 3
version 3

Whole song

Interactive

9,454 views 1 this week
3 commentsread comments
1 2 3 4 5
x 9
add to favorites
×
Save as Personal and add changes to this tab that will be seen only by you. Learn more ›
×
You can save this tab as Personal to edit and correct it or add notes. All changes will be seen only by you. Learn more »
launch autoscroll
font size
0
reset
how to read this tab
guitar tuner
edit
Autoscroll
slow
fast
+/-
esc
set tempo
stop
Author
-------------------------------------------------------------------------------
			     Slash VW Ad
-------------------------------------------------------------------------------
Tabbed by: nick dupont (sikk_nick)
Email: sikk_nick@yahoo.com

Mmkay, this is the whole version, you can hear it on the website…it is about a second longer
I also tabbed the other 2 ads, and I will send them in soon.


Tuning: standard--Tune down ½ step low
[Eb,Ab,Db,Gb,Bb,eb]
slightly flat

ALL BENDS ARE FULL BENDS

*this is where the ad starts
eb|-------------------*---------------|
Bb|-------------------*---------------|
Gb|-------------------*---------------|
Db|-----------------------------------|
Ab|---------------------------3-------|
Eb|--3-h5-3h5-3h5-3h5---0-3-5---5-5-0-|

eb|-------------------------------|-----------------------------------|
Bb|-------------------------------|-7/9\7p5-7-------/9-9-----7p5------|
Gb|-----x-x-----x-x-------x-5---5-|-7/9\7p5-7p5-----/9-9-7p5-7p5------|
Db|-----x-x-7-7-x-x-5-5---x-5h7-5-|-7/9\7p5-7p5-7p5-/9-9-----7p5-7-5--|
Ab|-----x-x-----x-x-------x-5-----|-------------------------------(5)-|
Eb|--5--x-x-----x-x-------x-------|-----------------------------------|

					
eb|----------------------x/-/12-----|-15^17--15~--12h15-----12--12-15--------|
Bb|----------------------x//---(12)-|------------------15^17--15-----15^17~~~|
Gb|----x-x-----x-x-------x/---------|----------------------------------------|
Db|----x-x-7-7-x-x-5----------------|----------------------------------------|
Ab|----x-x-----x-x------------------|----------------------------------------|
Eb|-5--x-x-----x-x------------------|----------------------------------------|


eb|--------------------------------5-8-|--8--8---5------5--5--------------|
Bb|------x-x-7-7-7---(5)(5)-(5)--5-7-7-|--7--7-----8^10---(5)------7-5----|
Gb|--7---x-x-7-7-7----5--5---5---5-5-5-|-------------------5h7p5h7-7-5----|
Db|--7---x-x-7-7-7-7--5--5---5---5-----|---------------------------7-5-7--|
Ab|--5---x-x-------7-------------------|----------------------------------|
Eb|------x-x---------------------------|----------------------------------|

eb|---------------------------------|-----------------------------------|
Bb|---------------------------------|-----------------------------------|
Gb|-----------7-9-x-x-7-7-----------|-7---x-x--7-7--x-x-5-5---5-----5---|
Db|---------------x-x---------------|-x---x-x--7-7--x-x-5-5-7-5---7-5---|
Ab|--------------------------7---6--|-5---x-x-------x-x-----------------|
Eb|--0--(0-0)----------------0---x--|-----x-x-------x-x-----------------|

eb|---------------------------------------------|-------------------------|------|
Bb|---------------------------------------------|-------------------------|------|
Gb|-7p5h7--------5---5--------7^9r7p5--7p5------|--------------5----------|------|
Db|-7p5h7-7p5h7--5-7-5-7p5h7--7^9r7p5--7p5-7p5--|-5-5-------5h7-----------|------|
Ab|-------7p5h7----7---7p5h7---------------7p5--|-5-5--7p6p5-----7h5------|-3p0--|
Eb|---------------------------------------------|-------------------3-5~~~|------|




| /  slide up
| \  slide down
| h  hammer-on
| p  pull-off
| ~  vibrato
| +  harmonic
| x  Mute note
| ^  full bend**  
| r  release bend
| () ghost notes (optional, hard to hear notes)


** (^__pitch EXAMPLE: 7^9 = 7 bend note to sound like it was played on the 9th fret)





John mayer is on the way ... enjoy
===============================================================================

Keywords: VW Volkswagen first act slash ad commercial advertisement guitar tab











===============================================================================
Oh by the way,
If you wanna try different endings, here is one:

eb|--instead of:------------||--try this:-----------|

Bb|-------------------------||----------------------|
Gb|------------5------------||----------------------|
Db|--------5h7--------------||-------5h6h7----------|
Ab|--7p6p5-------7h5--------||--5h6h7-----7p5p3-----|
Eb|------------------3--5~--||------------------5~--|

            
            
Suggest correction
Creating personal tab
Creating personal tab
You can edit any tab online and save it as your Personal.

You can edit, replace or remove any tab part or add personal notes – all changes will be seen only by you.

Personal tabs can be accessed anytime from any device, even offline.
Learn more »
comments
print report bad tab
3 comments total.
0 reply
master_ 10 Dec 15, 2006 11:44 AM

damn nice job...

0 reply
glynsgoods 10 Oct 10, 2007 11:14 PM

great work dude, you no what whould make it even better tho. if you made a guitar pro one, that whould be awsom.

0 reply
Negociator 40 Aug 31, 2009 11:58 AM

Awesome!

guest
You may want to rate the tab now too:
select rating
Wanna post a correction for this tab? Suggest correction