Oops, an error
Loading. Please wait.

Westworld - Main Theme Tab

version 2
version 2

Whole song

Video

5,464 views 639 this week
no commentswrite comment
1 2 3 4 5
x 4
add to favorites
launch autoscroll
font size
0
reset
how to read this tab
guitar tuner
Autoscroll
slow
fast
+/-
esc
set tempo
stop
Help us to improve Ultimate-Guitar.com Take our survey!
×
Author
Difficulty
novice
e|-------|----------------------------|----------------|
B|-------|----------------------------|----------------|
G|-2-----|----------------------------|----9-7-5-------|
D|----3--|-7--7/10--10/12--12/14--14~-|-7--------------|
A|-0-----|----------------------------|----------8-----|
E|----1--|----------------------------|----------------|

e|-----------------------------|----------------------|
B|-----------------------------|----------------------|
G|-----------------------------|-----10--9--7--7/9~---|
D|-7--7/10--10/12--12/14--14~--|--8-------------------|
A|-----------------------------|----------------------|
E|-----------------------------|----------------------|

e|-----------------------------|----------------------|
B|-----------------------------|----------------------|
G|-9-10-9-10-9--7--5--5/7~-----|-7-9-7-9-7--5---------|
D|-----------------------------|--------------5--5/7~-|
A|-----------------------------|----------------------|
E|-----------------------------|----------------------|

e|----------------------------------------------------|
B|----------------------------------------------------|
G|-10-12-10-12-10--9-7--10-9~-------------------------|
D|----------------------------------------------------|
A|----------------------------------------------------|
E|----------------------------------------------------|

e|-----------------------|------------------------|
B|-------1--3----------1-|------------------------|
G|-----3----------2--3---|-------3--5-----0--2--3-|
D|---2----------2--------|-----6--------3---------|
A|-1----------0----------|---5--------------------|
E|-----------------------|-4----------3-----------|

            
e|-------------------------|-------------------------|
B|-------------------------|-------------------------|
G|--------1--2--------1--2-|--------1--2--------1--2-|
D|---2--3--------2--3------|---2--3--------2--3------|
A|-0-----------0-----------|-0-----------0-----------|
E|-------------------------|-------------------------|


e|-------------------------|-------------------------|
B|-------------------------|-------------------------|
G|--------1--2-------1--2--|--------1--2--------1--2-|
D|------3----------3-------|------3-----------3------|
A|---3----------3----------|---3-----------3---------|
E|-1----------1------------|-1-----------1-----------|


e|-------------------------|-------------------------|
B|-------------------------|-------------------------|
G|--------1--2--------1--2-|--------1--2--------1--2-|
D|---2--3--------2--3------|---2--3--------2--3------|
A|-0-----------0-----------|-0-----------0-----------|
E|-------------------------|-------------------------|

e|-------------------|--------------------|
B|-------------------|--------------------|
G|-9-10-9-10-9--7--5-|-7-9-7-9-7-5--------|
D|-------------------|-------------5~-----|
A|-------------------|--------------------|
E|-------------------|--------------------|

e|----------------------------------------------------|
B|----------------------------------------------------|
G|-7-9-7-9-7-9/12--10-9~------------------------------|
D|----------------------------------------------------|
A|----------------------------------------------------|
E|----------------------------------------------------|

e|-------------------|--------------------------------|
B|-------------------|-13-13-12-13-12--10-------------|
G|-9-10-9-10-9-10/14-|--------------------9~----------|
D|-------------------|--------------------------------|
A|-------------------|--------------------------------|
E|-------------------|--------------------------------|

e|-------------------------------------------------------|-----|
B|-------1--3----------------1---------------------------|-----|
G|-----3---------------2--3-----------3--5------0--2--3--|--2--|
D|---2---------------2--------------6---------3----------|-----|
A|-1---------------0--------------5----------------------|--0--|
E|------------------------------4-----------3------------|-----|






 /   Slide up
 ~   Vibrato

this version: https://youtu.be/hxy6MwkeWn4 


this is a more complete version with tab: https://youtu.be/5OjGADoF-q4



Original Score by: Ramin Djawadi
Suggest correction
comments
print report bad tab
guest
You may want to rate the tab now too:
select rating
Wanna post a correction for this tab? Suggest correction