Oops, an error
Loading. Please wait.

Alton Towers Music Tab

1,629 views 1 this week
7 commentsread comments
1 2 3 4 5
x 5
add to favorites
launch autoscroll
font size
0
reset
how to read this tab
guitar tuner
×
Best way to learn
"Alton Towers Music"
Autoscroll
slow
fast
+/-
esc
set tempo
stop
alton towers music

it has a proper name but i dont know what it is

e:--------------------------------------------------|
b:--------------------------------------------------|
g:----------0-2---2--1---1--0---0-------------------|
d:----0-2-3-----3------2------1---------------------|
a:--------------------------------------------------|
E:--------------------------------------------------|


e:--------------------???
b:--------------------???
g:----------0-2---2---???
d:----0-2-3-----3-----??? thats as far as i got, maybe one of you guys
a:--------------------??? could finish it off.
E:--------------------???

James Newton
Suggest correction
comments
print report bad tab
7 comments total. Showing first comments.
0 reply
NathanUK 50 Nov 22, 2003 07:00 PM

e:--------------------???---------------
b:--------------------???-2-0-------0---
g:----------0-2---2---???-----2---2-----
d:----0-2-3-----3-----???-------3-------
a:--------------------???---------------
E:--------------------???---------------

0 reply
scottish_scotty 25 May 19, 2004 08:00 PM

e:--------------------???---------------
b:--------------------???-2-1-------1---
g:----------0-2---2---???-----2---2-----
d:----0-2-3-----3-----???-------3-------
a:--------------------???---------------
E:--------------------???---------------

0 reply
Nirvana_GodSmak 80 Feb 07, 2005 07:00 PM

It's called "Hall of the Mountain King."

guest
You may want to rate the tab now too:
select rating
Wanna post a correction for this tab? Suggest correction