Oops, an error
Loading. Please wait.

Amazing Grace tab

version 17
version 17

Whole song

Interactive

2,284 views 9 this week
2 commentsread comments
1 2 3 4 5
x 3
add to favorites
×
Save as Personal and add changes to this tab that will be seen only by you. Learn more ›
×
You can save this tab as Personal to edit and correct it or add notes. All changes will be seen only by you. Learn more »
launch autoscroll
font size
0
reset
how to read this tab
guitar tuner
edit
Autoscroll
slow
fast
+/-
esc
set tempo
stop
Author
Difficulty
About this tab version
I think my version is a simple way to play the song and gives people wanting to play a better understanding of playing up the length of the guitar. Was this info helpful? Yes No
Tabbed by:Daniel
E-mail:danielwooding@hotmail.com

Tuning: Standard

e|-----------------------------------|
B|-----------------------------------|
G|-------------9-7---9-7-------------|
D|-5-7-/-10-10----10-----10--5-7b-5--|
A|-----------------------------------|
E|-----------------------------------|

e|-----------------------------------------------------------------------|
B|--------------------------8-8-10b-8-5-6-7-8-8--------------------------|
G|-------------9-7----9-7-9---------------------9-7--9-7-h9-7------------|
D|-5-7-/-10-10-----10------------------------------10---------10-5-b7-5--|
A|-----------------------------------------------------------------------|
E|-----------------------------------------------------------------------|

e|---------------------------------------------------------------------------------------|
B|---------------------------------------------------------------------------------------|
G|-------------9-7----9-7----7-----------------------------------------------------------|
D|-5-7-/-10-10-----10-----10---10--------------------------------------------------------|
A|---------------------------------------------------------------------------------------|
E|---------------------------------------------------------------------------------------|


************************************

| b  Bend
| /  Slide up
| h  Hammer-on

************************************
Suggest correction
Creating personal tab
Creating personal tab
You can edit any tab online and save it as your Personal.

You can edit, replace or remove any tab part or add personal notes – all changes will be seen only by you.

Personal tabs can be accessed anytime from any device, even offline.
Learn more »
Give kudos to tab author, rate the tab!
1 2 3 4 5
comments
print report bad tab
2 comments total.
0 reply
jtsl2228 10 Aug 24, 2015 09:31 PM

Outstanding tab! It took some time to match up the melody to the lyrics, but I'm glad I took that time. Only suggestion is to change the difficulty level. This is at least intermediate, if not advanced (in my opinion).

0 reply
beckpc 10 Jul 24, 2017 05:27 AM

It sond´s very well, good Job, thank´s

guest
You may want to rate the tab now too:
select rating
Wanna post a correction for this tab? Suggest correction