Oops, an error
Loading. Please wait.

Amazing Grace Tab

version 5
version 5

Whole song

Interactive

23,314 views 39 this week
4 commentsread comments
1 2 3 4 5
x 4
add to favorites
launch autoscroll
font size
0
reset
how to read this tab
guitar tuner
×
Best way to learn
"Amazing Grace"
Autoscroll
slow
fast
+/-
esc
set tempo
stop
Author
Difficulty
  follow
intermediate
Amazing Grace
Tabbed by: CosmicBuffalo – myrddraal@prodigy.net

  Ama   zing grace how sweet the sound                
|---0-----4-2-0-4--2--0----0-0--------------------|
|-0--------------------------2---2-2p0------------|
|-------------------------------------------------|
|-------------------------------------------------|
|-------------------------------------------------|
|-------------------------------------------------|


that saved   a  soul like me               I once        
|------0-----4-2-0-4---2-2/7-9p7--12-9-7-5-4-7-4--|
|-0-0---------------------------------------------|
|-------------------------------------------------|
|-------------------------------------------------|
|-------------------------------------------------|
|-------------------------------------------------|



 Was lost but now  am  found      was blind   
|-7-4-0-----------0-0--------------------0--------|
|-----------0--2-------2-2p0--------0-0-----------|
|-------------------------------------------------|
|-------------------------------------------------|
|-------------------------------------------------|
|-------------------------------------------------|

 
 but  now  I see>>>  (hold “see” note to finish)
|-4-2-0-4---2-0---0-------------------------------|
|-----------------1-------------------------------|
|-----------------2-------------------------------|
|-----------------2-------------------------------|
|--------------0--0-------------------------------|

Suggest correction
comments
print report bad tab
4 comments total. Showing first comments.
0 reply
TheWho2 490 Feb 11, 2008 02:44 PM

something is off..

0 reply
guitar laxer 10 Jan 05, 2009 01:39 PM

on the last row there's 5 strings

0 reply
King Jack Rifle 10 Apr 20, 2014 05:50 PM

didn't like this contribution

guest
You may want to rate the tab now too:
select rating
Wanna post a correction for this tab? Suggest correction