Oops, an error
Loading. Please wait.

Amazing Grace Tab

version 5
version 5

Whole song

Interactive

22,284 views 18 this week
1 commentread comment
1 2 3 4 5
x 4
add to favorites
launch autoscroll
font size
0
reset
how to read this tab
guitar tuner
×
Best way to learn
"Amazing Grace"
Autoscroll
slow
fast
+/-
esc
set tempo
stop
Author
Difficulty
Tuning
novice
E A D G B E
-------------------------------------------------------------------------------
                             Amazing Grace - Misc.
-------------------------------------------------------------------------------
Tabbed by: Bmine5 Feel free to email me below if you have any questions! Thanks!
Email: barry51@centurytel.net

Tuning: EADGBe

e|---------------------------------------------------------------------------|
B|---------------------------------------------------------------------------|
G|---------------------------------------------------------------------------|
D|---------------------------------------------3---33------------------------|
A|-------1--5-1-5--3-1-----------1--5-1-5--3-5---5----5-3-1\5--3-1----------1|
E|---1-3---------------3-1---1-3-----------------------------------3-1--3-1--|

e|---------------------------------------------------------------------------|
B|---------------------------------------------------------------------------|
G|---------------------------------------------------------------------------|
D|---------------------------------------------------------------------------|
A|-5-1-5--3-1----------------------------------------------------------------|
E|---------------------------------------------------------------------------|
Suggest correction
comments
print report bad tab
1 comment total.
0 reply
Boogieman117 10 Aug 25, 2008 08:17 AM

Good for a bassy sound.

guest
You may want to rate the tab now too:
select rating
Wanna post a correction for this tab? Suggest correction