Oops, an error
Loading. Please wait.

Amazing Grace tab

version 9
version 9

Whole song

Interactive

44,495 views 33 this week
6 commentsread comments
1 2 3 4 5
x 33
add to favorites
×
Save as Personal and add changes to this tab that will be seen only by you. Learn more ›
×
You can save this tab as Personal to edit and correct it or add notes. All changes will be seen only by you. Learn more »
launch autoscroll
font size
0
reset
how to read this tab
guitar tuner
edit
Autoscroll
slow
fast
+/-
esc
set tempo
stop
-------------------------------------------------------------------------------
     Amazing Grace - Misc. Christian
-------------------------------------------------------------------------------
Tabbed by: Lumpy Fat

Tuning: Standard - EADGBe

note: this is a really easy song to play, so go ahead and add stuff to it to
make it sound cool. 

e|-----10--14-10-14--12--10--------------10--14-10-14-12--17-----------------|
B|--10-----------------------12-10---10--------------------------------------|
G|---------------------------------------------------------------------------|
D|---------------------------------------------------------------------------|
A|---------------------------------------------------------------------------|
E|---------------------------------------------------------------------------|

e|--14-17-14-17-14-10--------10-10------------10--14-14--10--14--12--10------|
B|---------------------10-12-------12-10---10--------------------------------|
G|---------------------------------------------------------------------------|
D|---------------------------------------------------------------------------|
A|---------------------------------------------------------------------------|
E|---------------------------------------------------------------------------|


Just repeat that for each verse. to find the rhythm, just listen to the song,
or if you know it, hum it. When I play it, I like to play around with it by
adding slides and hammers, pulls and vibrato's in places to make it sound 
cool. just have fun with it.

This is my first tab, so if it sucks, blame that.

            
            
Suggest correction
Creating personal tab
Creating personal tab
You can edit any tab online and save it as your Personal.

You can edit, replace or remove any tab part or add personal notes – all changes will be seen only by you.

Personal tabs can be accessed anytime from any device, even offline.
Learn more »
comments
print report bad tab
6 comments total. Showing first comments.
0 reply
CA Rocker 20 Aug 20, 2008 01:13 PM

FINALLY!
a good tab of amazing grace
all the others dont sound right
ty ty ty ty

0 reply
Trey3 93 Oct 16, 2008 01:29 PM

i like mine better and the comment before mine was posted before i submitted my tab, its worth checking out, i also include the chords with it

0 reply
Trey3 93 Oct 16, 2008 01:29 PM

i like mine better and the comment before mine was posted before i submitted my tab, its worth checking out, i also include the chords with it

guest
You may want to rate the tab now too:
select rating
Wanna post a correction for this tab? Suggest correction