Oops, an error
Loading. Please wait.

Amhran Na Bhfiann Tab

version 1
version 1

Whole song

Interactive

10,539 views 12 this week
1 commentread comment
1 2 3 4 5
x 7
add to favorites
launch autoscroll
font size
0
reset
how to read this tab
guitar tuner
×
Best way to learn
"Amhran Na Bhfiann"
Autoscroll
slow
fast
+/-
esc
set tempo
stop
"Amhran na bhFiann"
e|---------9------|-----------|-------------|-----------|----------|
B|--10--12-----10-|-----------|--7---7----7-|--5---7--5-|--10---9--|
G|----------------|--9-----9--|--------7----|-----------|----------|
D|----------------|-----------|-------------|-----------|----------|
A|----------------|-----------|-------------|-----------|----------|
E|----------------|-----------|-------------|-----------|----------|

                                      "Fe mhoid bheith..."
e|------------|--7---9-7-----|--------|---------9------|-----------|
B|-7----9--10-|------------7-|---9----|--10--12-----10-|-----------|
G|------------|--------------|--------|----------------|--9-----9--|
D|------------|--------------|--------|----------------|-----------|
A|------------|--------------|--------|----------------|-----------|
E|------------|--------------|--------|----------------|-----------|

e|---------------|---------------|------------|--------------|
B|--7---7-----7--|--5---7-5---7--|--9---9---9-|--9--9--7-----|
G|---------7-----|---------------|------------|------------9-|
D|---------------|---------------|------------|--------------|
A|---------------|---------------|------------|--------------|
E|---------------|---------------|------------|--------------|

           "Anocht a theam..."
e|---------|---------------------|-------------5--|--4-----4----|
B|---------|---------------------|--5---7--5------|-----7-----7-|
G|--9----9-|--7---7--7--4--6--7--|----------------|-------------|
D|---------|---------------------|----------------|-------------|
A|---------|---------------------|----------------|-------------|
E|---------|---------------------|----------------|-------------|

            "Le guna..."
e|--------------|------------------|---------7--9~----------|
B|--5--------5--|------------------|--7-9-10----------10----|
G|-----7--4-----|--6------6--9---9-|---------------------11-|
D|--------------|------7-----------|------------------------|
A|--------------|------------------|------------------------|
E|--------------|------------------|------------------------|

e|--------9--------------|
B|----10----12--10-10~---|
G|--9--------------------|
D|-----------------------|
A|-----------------------|
E|-----------------------|
Suggest correction
comments
print report bad tab
1 comment total.
0 reply
con job 160 Jul 26, 2008 12:42 PM

Damn accurate as far as I can see. I would have done it in Bb myself though :P

guest
You may want to rate the tab now too:
select rating
Wanna post a correction for this tab? Suggest correction