Oops, an error
Loading. Please wait.

Auld Lang Syne Bass Tab

version 1
version 1

Whole song

Interactive

3,271 views 1 this week
2 commentsread comments
1 2 3 4 5
x 3
add to favorites
launch autoscroll
font size
0
reset
guitar tuner
Autoscroll
slow
fast
+/-
esc
set tempo
stop
Help us to improve Ultimate-Guitar.com Take our survey!
×
Auld Lang Syne

 ()-let ring

G |---------4-2---2-4-2-----4-7-(9)-9-7-4-4---2---2-4-2-----------|
D |-0-5-4-5-----5-------5-5-----------------5---5-------5-5-2-0-5-|
A |---------------------------------------------------------------|
E |---------------------------------------------------------------|

G |-9-7-4-4---2---2--9-7-4-4-7-(9)-9-7-4-4---2---2--4-2-----------|
D |---------5---5--------------------------5---5--------5-5-2-0-5-|
A |---------------------------------------------------------------|
E |---------------------------------------------------------------|

This is a simple holiday classic, as long as you pick up the rhythm.
 - Also, you can substitute all of the 5's on the D string with 0's on the E string, 
would make it even simpler.
Suggest correction
Give kudos to tab author, rate the tab!
1 2 3 4 5
comments
print report bad tab
2 comments total.
0 reply
johnnyP43 30 Jan 03, 2009 03:49 PM

i tabbed this song of the sheet music for it your way off

0 reply
AngelWolf 177 Jun 07, 2010 08:02 PM

seems ok.. one thing though if you substitute the 5s on D to open E its no longer a G... so it sounds weird.

guest
You may want to rate the tab now too:
select rating
Wanna post a correction for this tab? Suggest correction