Oops, an error
Loading. Please wait.

Auld Lang Syne ukulele

version 3
version 3
175 views 3 this week
no commentswrite comment
1 2 3 4 5
3 more votes to show rating
add to favorites
×
Save as Personal and add changes to this tab that will be seen only by you. Learn more ›
×
You can save this tab as Personal to edit and correct it or add notes. All changes will be seen only by you. Learn more »
launch autoscroll
font size
0
reset
transpose
0
reset
simplify chords
display chords
guitar tuner
edit
Autoscroll
slow
fast
+/-
esc
set tempo
stop
Author
Strumming
There is no strumming pattern for this song yet. and get +5 IQ
C7     F                 C7
Should auld acquaintance be forgot,
    F     F7         Bb
And never brought to mind?
       F                 C7
Should auld acquaintance be forgot,
    Bb   Bb7  F
And auld lang syne.


C7  F         C7
For auld lang syne, my jo,
    F    F7   Bb
For auld lang syne,
      F            C7
We'll tak a cup o' kindness yet,
    Bb   Bb7  F
For auld lang syne,


C7  F               C7
And surely ye'll be your pint-stowp!
    F      F7      Bb
And surely I'll be mine!
          F            C7
And we'll tak a cup o' kindness yet,
    Bb   Bb7  F
For auld lang syne,


C7  F         C7
For auld lang syne, my jo,
    F    F7   Bb
For auld lang syne,
      F            C7
We'll tak a cup o' kindness yet,
    Bb   Bb7  F
For auld lang syne,


C7 F            C7
We twa hae run about the braes
    F        F7     Bb
And pu'd the gowans fine;
          F               C7
But we've wander'd mony a weary foot
    Bb   Bb7  F
Sin auld lang syne,


C7  F         C7
For auld lang syne, my jo,
    F    F7   Bb
For auld lang syne,
      F            C7
We'll tak a cup o' kindness yet,
    Bb   Bb7  F
For auld lang syne,


C7 F               C7
We twa hae paidl'd i' the burn,
     F       F7       Bb
Frae mornin' sun till dine;
    F               C7
But seas between us braid hae roar'd
    Bb   Bb7  F
Sin auld lang syne,


C7  F         C7
For auld lang syne, my jo,
    F    F7   Bb
For auld lang syne,
      F            C7
We'll tak a cup o' kindness yet,
    Bb   Bb7  F
For auld lang syne,


C7  F                  C7
And there's a hand, my trusty fiere!
    F       F7      Bb
And gie's a hand o' thine!
          F                C7
And we'll tak a right guid willy waught,
    Bb   Bb7  F
For auld lang syne,


C7  F         C7
For auld lang syne, my jo,
    F    F7   Bb
For auld lang syne,
      F            C7
We'll tak a cup o' kindness yet,
    Bb   Bb7  F
For auld lang syne.




And here's the tab for the melody!

A|------0-1-----0------03-5---------------|
E|-1--01--3--13--3-1--1-------------------|
C|0---------------------------------------|
G|-2---------------2------3---------------|
Should auld acquaintance be forgot, And never brought to mind?

A|8-3-00--1-----0-------------------------|
E|------1-3--13--3-1------1---------------|
C|-----------------2--220-----------------|
G|--2---------------------2---------------|
Should auld acquaintance be forgot, And auld lang syne.


A|5--3--00--1------5--3--00-3--5----------|
E|--------1-3--13-------------------------|
C|----------------------------------------|
G|3--2-------------3--2-----2--3----------|
For auld lang syne, my jo, For auld lang syne,

A|8-3-00--1-----0-------------------------|
E|------1-3--13--3-1------1---------------|
C|-----------------2--220-----------------|
G|--2---------------------2---------------|
We'll tak a cup o' kindness yet, For auld lang syne.


A|------0-1-----0------03-5---------------|
E|-1--01--3--13--3-1--1-------------------|
C|0---------------------------------------|
G|-2---------------2------3---------------|
And surely ye'll be your pint-stowp! And surely I'll be mine!

A|8-3-00--1-----0-------------------------|
E|------1-3--13--3-1------1---------------|
C|-----------------2--220-----------------|
G|--2---------------------2---------------|
And we'll tak a cup o' kindness yet, For auld lang syne.


A|5--3--00--1------5--3--00-3--5----------|
E|--------1-3--13-------------------------|
C|----------------------------------------|
G|3--2-------------3--2-----2--3----------|
For auld lang syne, my jo, For auld lang syne,

A|8-3-00--1-----0-------------------------|
E|------1-3--13--3-1------1---------------|
C|-----------------2--220-----------------|
G|--2---------------------2---------------|
We'll tak a cup o' kindness yet, For auld lang syne,


A|------0-1-----0------03-5---------------|
E|-1--01--3--13--3-1--1-------------------|
C|0---------------------------------------|
G|-2---------------2------3---------------|
We twa hae run about the braes And pu'd the gowans fine;

A|8-3-00--1-----0-------------------------|
E|------1-3--13--3-1------1---------------|
C|-----------------2--220-----------------|
G|--2---------------------2---------------|
But we've wander'd mony a weary foot Sin auld lang syne.


A|5--3--00--1------5--3--00-3--5----------|
E|--------1-3--13-------------------------|
C|----------------------------------------|
G|3--2-------------3--2-----2--3----------|
For auld lang syne, my jo, For auld lang syne,

A|8-3-00--1-----0-------------------------|
E|------1-3--13--3-1------1---------------|
C|-----------------2--220-----------------|
G|--2---------------------2---------------|
We'll tak a cup o' kindness yet, For auld lang syne.


A|------0-1-----0------03-5---------------|
E|-1--01--3--13--3-1--1-------------------|
C|0---------------------------------------|
G|-2---------------2------3---------------|
We twa hae paidl'd i' the burn, Frae mronin' sun till dine;

A|8-3-00--1-----0-------------------------|
E|------1-3--13--3-1------1---------------|
C|-----------------2--220-----------------|
G|--2---------------------2---------------|
But seas between us braid hae roar'd Sin auld lang syne.


A|5--3--00--1------5--3--00-3--5----------|
E|--------1-3--13-------------------------|
C|----------------------------------------|
G|3--2-------------3--2-----2--3----------|
For auld lang syne, my jo, For auld lang syne,

A|8-3-00--1-----0-------------------------|
E|------1-3--13--3-1------1---------------|
C|-----------------2--220-----------------|
G|--2---------------------2---------------|
We'll tak a cup o' kindness yet, For auld lang syne.

A|------0-1-----0------03-5---------------|
E|-1--01--3--13--3-1--1-------------------|
C|0---------------------------------------|
G|-2---------------2------3---------------|
And there's a hand, my trusty fiere! And gie's a hand o' thine!

A|8-3-00--1-----0-------------------------|
E|------1-3--13--3-1------1---------------|
C|-----------------2--220-----------------|
G|--2---------------------2---------------|
And we'll tak a right guid willy waught, For auld lang syne.


A|5--3--00--1------5--3--00-3--5----------|
E|--------1-3--13-------------------------|
C|----------------------------------------|
G|3--2-------------3--2-----2--3----------|
For auld lang syne, my jo, For auld lang syne,

A|8-3-00--1-----0-------------------------|
E|------1-3--13--3-1------1---------------|
C|-----------------2--220-----------------|
G|--2---------------------2---------------|
We'll tak a cup o' kindness yet, For auld lang syne.

            
            
Suggest correction
Creating personal tab
Creating personal tab
You can edit any tab online and save it as your Personal.

You can edit, replace or remove any tab part or add personal notes – all changes will be seen only by you.

Personal tabs can be accessed anytime from any device, even offline.
Learn more »
Give kudos to tab author, rate the tab!
1 2 3 4 5
comments
print report bad tab
guest
You may want to rate the tab now too:
select rating
Wanna post a correction for this tab? Suggest correction