Oops, an error
Loading. Please wait.

Aura Lee tab

version 2
version 2

Whole song

Interactive

10,865 views 30 this week
3 commentsread comments
1 2 3 4 5
x 13
add to favorites
×
Save as Personal and add changes to this tab that will be seen only by you. Learn more ›
×
You can save this tab as Personal to edit and correct it or add notes. All changes will be seen only by you. Learn more »
launch autoscroll
font size
0
reset
how to read this tab
guitar tuner
edit
Autoscroll
slow
fast
+/-
esc
set tempo
stop
----------------------------------------------------------------------------
                             aura lee - Misc traditional
----------------------------------------------------------------------------
Tabbed by:John
Email:you dont need my email.

Key
-Halfnote= A "b" above the note.
-Wholenote= A "O" above the note.
-all unmarked notes are quarter notes.



              b        b b             b       O     b     b      
e|-------|-----|------|---|--------|---|------|-|0-0-0|0-0-0-|0------|
B|--1-0-1|3---3|1-0-0-|1--|--1-0-1-|3-3|1-0-0-|1|-----|------|--3-1-3|
G|0------|--2--|---2--|--0|0-------|-2-|---2--|-|-----|------|-------|
D|-------|-----|------|---|--------|---|------|-|-----|------|-------|
A|-------|-----|------|---|--------|---|------|-|-----|------|-------|
E|-------|-----|------|---|--------|---|------|-|-----|------|-------|
  O              b           O      
e|0|0-0-1-0|------|---------|-|
B|-|-------|-3---3|-1-0-3-0-|1|
G|-|-------|---2--|---------|-|
D|-|-------|------|---------|-|
A|-|-------|------|---------|-|
E|-|-------|------|---------|-|


            
            
Suggest correction
Creating personal tab
Creating personal tab
You can edit any tab online and save it as your Personal.

You can edit, replace or remove any tab part or add personal notes – all changes will be seen only by you.

Personal tabs can be accessed anytime from any device, even offline.
Learn more »
comments
print report bad tab
3 comments total.
0 reply
OMFGEwok 10 May 15, 2009 05:52 PM

Perfect, sounds exactly as it should.
Good for beginners, 5 stars.

0 reply
OMFGEwok 10 May 15, 2009 05:53 PM

Perfect, sounds exactly as it should.
Good for beginners, 5 stars.

0 reply
hopeforchris 408 Dec 30, 2009 10:39 AM

The final bar, i play this way.

|-----0-----|
|-1-0---3-1-|
|-----------|
|-----------|
|-----------|

otherwise sound really good

guest
You may want to rate the tab now too:
select rating
Wanna post a correction for this tab? Suggest correction