Oops, an error
Loading. Please wait.

Good Christian Men Rejoice tab

115 views 1 this week
no commentswrite comment
1 2 3 4 5
3 more votes to show rating
add to favorites
×
Save as Personal and add changes to this tab that will be seen only by you. Learn more ›
×
You can save this tab as Personal to edit and correct it or add notes. All changes will be seen only by you. Learn more »
launch autoscroll
font size
0
reset
how to read this tab
guitar tuner
edit
Autoscroll
slow
fast
+/-
esc
set tempo
stop
Author
-------------------------------------------------------------------------------
                good christian men rejoice - traditional
-------------------------------------------------------------------------------
Tabbed by:
E-mail:
key of F
Tuning:E-A-D-G-B-e

e|---------------------------------------------------------------------------|
B|-----------------------1-3-1-1-----------------------1-3-1-1---3---1-------|
G|----------------2---3----------------------2----3----------------------3---|
D|--3---3---3-----3---0--3---3-2---3-----3---3----0----3---3-3---3---2---5---|
A|------3---3----------------------3-----------------------------------------|
E|---------------------------------------------------------------------------|
  good christian men rejoice with heart and soul and voice give ye heed to 
e|---------------------------------------------------------------------------|
B|----------------------------------------1---3----1-------------------------|
G|--2---0-------0-0---2-----0-------0--2----------------3--2---0-----------0-|
D|--3---2--3----0-----3-----2---3---3--3--3---3----2----5--3---2---3---3---0-|
A|---------5-------------------------------------------------------5---------|
E|---------------------------------------------------------------------------|
  what we say Jesus Christ is born today man and beast before him bow and he
e|---------------------------------------------------------------------------|
B|---------------------------------------------------------------------------|
G|0---2--0------0---2------------------------2------2--0----0----------------|
D|0---3--2---3--3---3----0-----0---2---2-3---3------3--3----2-3--------------|
A|-----------------------------1---3---3-3-----------------------------------|
E|---------------------------------------------------------------------------|
  is in the manger now Christ is born today Christ is born today



************************************

| /   slide up
| \   slide down
| h   hammer-on
| p   pull-off
| ~   vibrato
| +   harmonic
| x   Mute note
| b   Bend
| pb  Pre-bend
| br  Bend release
| pbr Pre-bend release
| brb Bend release bend

************************************
Suggest correction
Creating personal tab
Creating personal tab
You can edit any tab online and save it as your Personal.

You can edit, replace or remove any tab part or add personal notes – all changes will be seen only by you.

Personal tabs can be accessed anytime from any device, even offline.
Learn more »
Give kudos to tab author, rate the tab!
1 2 3 4 5
comments
print report bad tab
guest
You may want to rate the tab now too:
select rating
Wanna post a correction for this tab? Suggest correction