Oops, an error
Loading. Please wait.

Ive Been Working On The Railroad Tab

version 1
version 1

Whole song

Interactive

9,182 views 9 this week
1 commentread comment
1 2 3 4 5
1 last vote to show rating
add to favorites
launch autoscroll
font size
0
reset
how to read this tab
guitar tuner
Autoscroll
slow
fast
+/-
esc
set tempo
stop
Help us to improve Ultimate-Guitar.com Take our survey!
×
Author
Tabbers playing skills
----------------------------------------------------------------------------
                     I've Been Working on the Railroad
----------------------------------------------------------------------------


Tabbed by: Dave S. 
Email: prime-prine@hotmail.com

Tuning: Standard



|----------------|-------------|--------------|---------------|
|----------------|-0-----------|-1----1-------|-0--------0----|
|-0----0---0---2-|-------0-----|--------0--2--|------0--------|
|----0-------0---|----0-----0--|----2---------|----0-------0--|
|----------------|-------------|-3------------|---------------|
|-3------3-------|-3-----3-----|--------------|-3------3------|


|----------------|-------------|--------------|----2--------|
|----------------|-0-----------|-----------0--|-------1-----|
|-0----0---0---2-|-------0-----|-2--2---2-----|-2--------2--|
|----0-------0---|----0-----0--|------2-------|-0-----------|
|----------------|-------------|-0------------|-------------|
|-3------3-------|-3-----3-----|--------------|-------------|


|---------------|-------------|--------------|---------------|
|-----------0---|-------------|-1----1-------|-0-------------|
|-2--2--1-2---2-|-0--0--------|--------0--2--|------2---2----|
|-0-------------|-------0--0--|----2---------|----1-------1--|
|---------------|-------------|-3------------|-2-------------|
|---------------|-3-----3-----|--------------|--------2------|


|---------------|-------------|-------------|---------------|
|-1-----5-------|-------------|-0--1--0-----|---------------|
|---------------|-------0--0--|----------2--|-0----0---0----|
|-2--4--5-4-5-2-|-0--0--------|----0-----0--|----0-------0--|
|-3-----3-------|-------------|-------------|---------------|
|---------------|-3-----3-----|-3-----3-----|-3------3------|


|---------------|-------------|---------------|-^2-----------|
|-0----0--------|-------------|-0----0--------|-^1-----------|
|----------0----|-0--0--------|----------0----|-^2-----------|
|----0-------0--|-------0--0--|----0-------0--|-^0--4--2--0--|
|---------------|-------------|---------------|--------------|
|-3------3------|-3-----3-----|-3------3------|--------------|


|---------------|-------0-----|--------------|------|
|-0----0--------|-1-----------|-3----3-1-----|------|
|----------0----|-------------|-----------2--|-0----|
|----0-------0--|----2-----2--|----0---0-----|------|
|---------------|-3-----------|--------------|------|
|-3------3------|-------3-----|-3------------|-3----|


Just the melody

e|--3-------3-----3--5--7----3---8--8--3--5--7--|
B|-------3-----3--------------------------------|
G|----------------------------------------------|
D|----------------------------------------------|
A|----------------------------------------------|
E|----------------------------------------------|


e|--3-------3-----3--5--7----3---5--5-5--7--5--|
B|-------3-----3-------------------------------|
G|---------------------------------------------|
D|---------------------------------------------|
A|---------------------------------------------|
E|---------------------------------------------|


e|--5--5--4-5-7-5-3-------8--8--3--5--7--|
B|-------------------3-------------------|
G|---------------------------------------|
D|---------------------------------------|
A|---------------------------------------|
E|---------------------------------------|


e|--0--2--3-2-3-0----3----7--8--7--5--3--|
B|----------------3----------------------|
G|---------------------------------------|
D|---------------------------------------|
A|---------------------------------------|
E|---------------------------------------|


e|--7--7--3--3-------3----7--7--3--3--5--2--0-----|
B|--------------3------------------------------3--|
G|------------------------------------------------|
D|------------------------------------------------|
A|------------------------------------------------|
E|------------------------------------------------|


e|--7--7--3--3--8----12----10--10--8---------|
B|------------------------------------10--8--|
G|-------------------------------------------|
D|-------------------------------------------|
A|-------------------------------------------|
E|-------------------------------------------|


Chords
G          
Ive been working on the railroad
C                 G
All the live long day
G
Ive been working on the railroad
        A7            D7
Just to pass the time away
D7                        G
Dont you hear the whistle blowing
C                       B7
Rise up so early in the morn
C                         G
Dont you hear the captain shouting
G     D7        G
Dinah blow your horn


G
Someone's in the kitchen with Dinah.
G                           D7
Someone's in the kitchen, I know.
G
Someone's in the kitchen with Dinah
G         D7         G
Strumming on the old banjo.


| /  slide up
| \  slide down
| h  hammer-on
| p  pull-off
| ~  vibrato
| +  harmonic
| x  Mute note
===========================================================================
Suggest correction
Give kudos to tab author, rate the tab!
1 2 3 4 5
comments
print report bad tab
1 comment total.
+1 reply
aig91 [cc] 4,326 Feb 13, 2009 02:11 PM

Sounds great

guest
You may want to rate the tab now too:
select rating
Wanna post a correction for this tab? Suggest correction