Oops, an error
Loading. Please wait.

Jon Blund - Sandmann Lieber Sandmann ukulele

124 views 6 this week
no commentswrite comment
1 2 3 4 5
3 more votes to show rating
add to favorites
×
Save as Personal and add changes to this tab that will be seen only by you. Learn more ›
×
You can save this tab as Personal to edit and correct it or add notes. All changes will be seen only by you. Learn more »
launch autoscroll
font size
0
reset
transpose
0
reset
simplify chords
display chords
guitar tuner
edit
Autoscroll
slow
fast
+/-
esc
set tempo
stop
Strumming
There is no strumming pattern for this song yet. and get +5 IQ
This is my first tabbed song, hope you enjoy it!

"Jon Blund" is the swedish version of the german (DDR?) character Sandmännchen. I was 
unable to find out
who wrote the swedish text, so I just set the german composer and writer of the song as artist.


Swedish:
     C             Am7         F       G     C
A ---3--------------0----------0-------2-----3------------|
E ---0-------0---1--0------0---1---1---3--0--0------------|
C ---0--------------0----------0-------2-----0------------|
G ---0---0----------0--0-------2-------0-----0------------|
     Titta, kom og titta, kom sätt er häromkring

          Dm     E7   Am7               D7
A ---------0-----2-----0----------------3-----------------|
E ---------1-0---0-0---0---------0------2-----------------|
C ----0----2-----2-----0--0-2-----------2-----------------|
G ---------2-----0-----0----------------2-----------------|
     Det dröjer säkert ännu en stund

                    G7   Em        Am7     Dm
A ------------------2-----2---------0------0--------------|
E ---0--------------1-----3---1-----0------1--------------|
C ------2---0--2----2--2--4---------0------2--------------|
G ------------------0-----0---------0------2--------------|
     Innan sömnen kommer med John Blund

                 G7         C
A ----------------2---------3-----------------------------|
E ----0---1-------1---------0-----------------------------|
C -----------2--0-2----0-2--0-----------------------------|
G ----------------0---------0-----------------------------|
     Han vil visa oss någonting.


German:
     C                Am7           F        G       
 C
A ---3-----------------0------------0--------2--------3-----|
E ---0----------0---1--0---------0--1---1----3----0---0-----|
C ---0-----------------0------------0--------2--------0-----|
G ---0---0-------------0--0---------2--------0--------0-----|
     Sandmann, lieber Sandmann, es ist noch nicht so weit!

          Dm     E7       Am7             D7
A ---------0-----2---------0--------------3-----------------|
E ---------1-0---0-----0---0-----0--------2-----------------|
C ----0----2-----2---------0-0-2----------2-----------------|
G ---------2-----0---------0--------------2-----------------|
     Wir  sehen  erst den Abendgruß,

                 G7     Em        Am7     Dm
A ---------------2-------2---------0------0-----------------|
E ---0-----------1-------3---3-----0------1-----------------|
C -----2-0--2----2--2----4---------0------2-----------------|
G ---------------0-------0---------0------2-----------------|
     ehe jedes kind ins Bettchen muß,

                G7        C
A --------------2---------3---------------------------------|
E ---0-1--------1---------0---------------------------------|
C -------2----0-2---0-2---0---------------------------------|
G --------------0---------0---------------------------------|
     du hast gewiß  noch Zeit.

            
            
Suggest correction
Creating personal tab
Creating personal tab
You can edit any tab online and save it as your Personal.

You can edit, replace or remove any tab part or add personal notes – all changes will be seen only by you.

Personal tabs can be accessed anytime from any device, even offline.
Learn more »
Give kudos to tab author, rate the tab!
1 2 3 4 5
comments
print report bad tab
guest
You may want to rate the tab now too:
select rating
Wanna post a correction for this tab? Suggest correction