Oops, an error
Loading. Please wait.

Just A Closer Walk With Thee tab

2,529 views 6 this week
1 commentread comment
1 2 3 4 5
2 more votes to show rating
add to favorites
×
Save as Personal and add changes to this tab that will be seen only by you. Learn more ›
×
You can save this tab as Personal to edit and correct it or add notes. All changes will be seen only by you. Learn more »
launch autoscroll
font size
0
reset
how to read this tab
guitar tuner
edit
Autoscroll
slow
fast
+/-
esc
set tempo
stop
Author
                               
                 Just A Closer Walk With Thee - Anonymous
                          arranged by Eric Enberg 

  
e|---------3-----------4---5---------------3-----------2---1---1---------------|
B|---------0---------------------------5---------------------------------------|
G|---------1-------0---------------0---------------0---------------------------|
D|-------------------------------------------------------------0---------------|
A|-----3-----------------------3-----------------------------------------------|
E|-------------3-------------------------------3-----------3-------------------|

left hand:             4   4   1       3   2   1       2   1
                                                           3

e|---------3---2---1-------1----------------10-------------8-------------------|
B|-------------------------------------------0---------------------------------|
G|------------------------------------------10--------10-----------------------|
D|-------------0-----------0-------0-------------------------------------------|
A|-------------------------------------10--------10----------------------------|
E|-----3---------------3-------3-----------------------------------------------|
                                                           1
           4   2   1                    2    4       
                                             3

e|----7--------------------8---5-p-3-------3-----------------------------------|
B|--------8-------10-------------------5---------------------------------------|
G|------------0------------------------0-----------0-------0-------0-----------|
D|-----------------------------------------------------------------------------|
A|----8----------------8-------3-----------------------3-----------------------|
E|---------------------------------------------3---------------3---------------|
      
      1   3        4   2   3   4   1   4   2   1       1
      2                        1

e|---------12---------------12----10-------------10-------------12-------------|
B|---------11--------------------------13--------------------------------------|
G|---------12----------12-------------------12-------------12------------------|
D|---------------10-----------------------------------10-----------------------|
A|----10--------------------------10-------------------------------------------|
E|-----------------------------------------------------------------------------|
            4                      1    4    3         1    3    4
       1    3                      1
            2

e|----10---8--------8-------------------8------------3---3-----------3---------|
B|-------------10---------------------------10---------------------------------|
G|-------------------------------------------------------0-------0-------------|
D|--------------7-----------7-------7------------7-------------------0---------|
A|-----8------------------------8--------------------3-------------------------|
E|----------------------8---------------8--------------------3-----------------|
       4        4                       3    4       4  
       2   3    1       2               2        1   3


e|----5---5---3---5-------8-------5-------3-------0----------------------------|
B|-------------------------------------------------------1---------------------|
G|----------------------------0-------0-------0-------0------------------------|
D|--------0-----------0--------------------------------------------------------|
A|----------------------------------------3--------------3---------------------|
E|----3-------3-----------8-------8---------------3----------------------------|
 
      4       2   4       4       1       4          
      1       1           3       3       3

            
            
Suggest correction
Creating personal tab
Creating personal tab
You can edit any tab online and save it as your Personal.

You can edit, replace or remove any tab part or add personal notes – all changes will be seen only by you.

Personal tabs can be accessed anytime from any device, even offline.
Learn more »
Give kudos to tab author, rate the tab!
1 2 3 4 5
comments
print report bad tab
1 comment total.
0 reply
eenberg 446 Mar 26, 2014 12:21 PM

Just A Closer Walk With Thee
arranged by Eric Enberg

e|---------3-----------4---5---------------3-----------2---1---1---------------|
B|---------1---------------------------5---------------------------------------|
G|---------0-------0---------------0---------------0---------------------------|
D|-------------------------------------------------------------0---------------|
A|-----3-----------------------3-----------------------------------------------|
E|-------------3-------------------------------3-----------3-------------------|

left hand: 1 4 4 1 3 2 1 2 1
3

e|---------3---2---1-------1----------------10-------------8-------------------|
B|-------------------------------------------0---------------------------------|
G|------------------------------------------10--------10-----------------------|
D|-------------0-----------0-------0-------------------------------------------|
A|-------------------------------------10--------10----------------------------|
E|-----3---------------3-------3-----------------------------------------------|
1
4 2 1 2 4
3

e|----7--------------------8---5-p-3-------3-----------------------------------|
B|--------8-------10-------------------5---------------------------------------|
G|------------0------------------------0-----------0-------0-------0-----------|
D|-----------------------------------------------------------------------------|
A|----8----------------8-------3-----------------------3-----------------------|
E|---------------------------------------------3---------------3---------------|

1 3 4 2 3 4 1 4 2 1 1
2 1

e|---------12---------------12----10-------------10-------------12-------------|
B|---------11--------------------------13--------------------------------------|
G|---------12----------12-------------------12-------------12------------------|
D|---------------10-----------------------------------10-----------------------|
A|----10--------------------------10-------------------------------------------|
E|-----------------------------------------------------------------------------|
4 1 4 3 1 3 4
1 3 1
2

e|----10---8--------8-------------------8------------3---3-----------4---------|
B|-------------10---------------------------10---------------------------------|
G|---------------------------------------------------------------0-------------|
D|--------------7-----------7-------7------------7-------2-----------2---------|
A|-----8------------------------8--------------------3-------------------------|
E|----------------------8---------------8--------------------3-----------------|
4 4 3 4 4 4 4
2 3 1 2 2 1 3 2 3 2

e|-5---5---3---5-------8-------5-------3-------0-------------------------------|
B|----------------------------------------------------1------------------------|
G|-------------------------0-------0-------0-------0-----0-----0-----0-----0---|
D|-----0-----------0-----------------------------------------------------------|
A|-------------------------------------3--------------3-----------3------------|
E|-3-------3-----------8-------3---------------3------------3-----------3------|

4 2 4 4 4 4 1
1 1 3 1 3 3 3

guest
You may want to rate the tab now too:
select rating
Wanna post a correction for this tab? Suggest correction